» » »

Unsigned, Kind Of A Relaxing Song I Made Tabs (ver.1)

Artists:  A B C D E F G H I J K L M N O P Q R S T U V W X Y Z # 

Kind Of A Relaxing Song I Made Tabs (ver.1)

Unsigned Tabs
 Rating:
4/5 (4 votes)
Kind Of A Relaxing Song I Made lessons Tabs too difficult? Try these video lessons and learn fast
                tuning:standard

i only have like one or two riffs so far but once when i get something good to go with it,i will tab it.sounds the best if u finger pick it
intro
|---0-----0-----0---0-----0-----0---0-----0-----0---0-----0-----0
|-----0-----0---------0-----0---------0-----0---------0-----0----
|-------5-----5---------5-----5---------5-----5---------5-----5--
|----------------------------------------------------------------
|-3---------------3---------------0---------------0--------------
|----------------------------------------------------------------
intro continued
|---0-----0-----0---0-----0-----0---0-----0-----0---0-----0-----0-|
|-----0-----0---------0-----0---------0-----0---------0-----0-----|
|-------5-----5---------5-----5---------5-----5---------5-----5---|
|-3---------------3---------------0---------------0---------------|
|-----------------------------------------------------------------|
|-----------------------------------------------------------------|
            
Submit corrections

comments powered by Disqus
↑ Back to top | Unsigned Tabs for Kind Of A Relaxing Song I Made. Lyrics for acoustic guitar and electric guitar. Tablatures and chords are parodies/interpretations of the original songs. You may use it for private study, scholarship, research or language learning purposes only