» » »

Golden Sex & Silver People - Bernok Song Bass tabs (ver.1)

Artists:  A B C D E F G H I J K L M N O P Q R S T U V W X Y Z # 

Golden Sex & Silver People - Bernok Song Bass tabs (ver.1)

Unsigned
Rating:
0/5 (0 votes)

Hard to play? Try these video lessons and learn fast.
                verse
G----7---7------|----7---7----10-9--|
D---------------|-------------------|
A--5---5----8-7-|--5---5------------|
E---------------|-------------------|

chorus
G------------------------------------|
D------------------------------------|
A--5-5-5-5------------------8-8--7-7-|
E----------5-5-5-5--6-6-6-6----------|

solo
G---5-5-5--8-8-8--|
D--6-6-6--5-5-5---|
A-----------------|
E-----------------|
            
Hard to play? Try these video lessons and learn fast. | Correct




comments powered by Disqus
↑ Back to top | Tablatures and chords are parodies/interpretations of the original songs. You may use it for private study, scholarship, research or language learning purposes only