» » »

Golden Sex & Silver People - Bernok Song Bass tabs (ver.2)

Artists:  A B C D E F G H I J K L M N O P Q R S T U V W X Y Z # 

Golden Sex & Silver People - Bernok Song Bass tabs (ver.2)

Unsigned
Rating:
0/5 (0 votes)

Hard to play? Try these video lessons and learn fast.
                verse
G-----------------------|-----------------|
D--------5--------------|---5------8-7----|
A-----------------------|-----------------|
E--3-3-----3-3--4-3----|--3--3-3----------|


into verse/solo
G-----------------------|
D-------5---------------|
A----------------x------|
E--3-3---3---x-x---x----|


pre chorus
G----------------------|
D-----5----------------|
A----------------------|
E--3-3--3-3--4-----3---|


chorus
G-----------------------------------------------------|
D-----------------------------------------------------|
A--------------1-1-1-1-1-1--3-3-3-3-3-3---------------|
E--1-1-1-1-1-1---------------------------5-5-5-3-3-3--|
            
Hard to play? Try these video lessons and learn fast. | Correct




comments powered by Disqus
↑ Back to top | Tablatures and chords are parodies/interpretations of the original songs. You may use it for private study, scholarship, research or language learning purposes only