» » »

Addicted To Nothing - Cover Song #3 Tabs (ver.3)

Artists:  A B C D E F G H I J K L M N O P Q R S T U V W X Y Z # 

Addicted To Nothing - Cover Song #3 Tabs (ver.3)

Unsigned
Rating:
0/5 (0 votes)

Tabs too difficult? Try these video lessons and learn fast.
                Addicted To Nothing Covering: "Alkaline Trio - Private Eye"

Tuning: E, A, D, G, B, E


Introduction:

E|----------------------------------------------------------------------------------|
B|----------------------------------------------------------------------------------|
G|-12-12-12-12-12-12--11-11--14-14-14-14--12-12-12-12-------------------------------|
D|--x--x--x--x--x--x---x--x---x--x--x--x---x--x--x--x--9-9-9-9-9-9-9-9--10-10-10-10-|
A|-10-10-10-10-10-10---9--9--12-12-12-12--10-10-10-10--9-9-9-9-9-9-9-9--10-10-10-10-|
E|--0--0--0--0--0--0---0--0---0--0--0--0---0--0--0--0--7-7-7-7-7-7-7-7---8--8--8--8-|

E|----------------------------------------------------------------------------------|
B|----------------------------------------------------------------------------------|
G|----------------------------------------------------------------------------------|
D|---10-10-10-10--------------------------------------------------------------------|
A|---10-10-10-10--------------------------------------------------------------------|
E|---8--8--8--8---------------------------------------------------------------------|


Introduction Part 2:

E|----------------------------------------------------------------------------------|
B|----------------------------------------------------------------------------------|
G|-12-12-12-12-12-12--11-11--14-14-14-14--12-12-12-12-------------------------------|
D|--x--x--x--x--x--x---x--x---x--x--x--x---x--x--x--x--9-9-9-9-9-9-9-9--10-10-10--9-|
A|-10-10-10-10-10-10---9--9--12-12-12-12--10-10-10-10--9-9-9-9-9-9-9-9--10-10-10--9-|
E|--0--0--0--0--0--0---0--0---0--0--0--0---0--0--0--0--7-7-7-7-7-7-7-7---8--8--8--7-|

E|---------------------------------------------------------------------------------|
B|---------------------------------------------------------------------------------|
G|---------------------------------------------------------------------------------|
D|---9-9---------------------------------------------------------------------------|
A|---9-9---------------------------------------------------------------------------|
E|---7-7---------------------------------------------------------------------------|

Verse Part 1:
(Underlined With Dots Means Palm Mute)

E|----------------------------------------------------------------------------------|
B|----------------------------------------------------------------------------------|
G|----------------------------------------------------------------------------------|
D|---------------------------------------------------9-9-9-9-9-9-9-9--10-10-10-10-10|
A|-10-10-10-10-10-10--9-9--12-12-12-12--10-10-10-10--9-9-9-9-9-9-9-9--10-10-10-10-10|
E|--0--0--0--0--0--0--0-0---0--0--0--0---0--0--0--0--7-7-7-7-7-7-7-7---8--8--8--8--8|
   .................  ...  ...........  ...........  ...............   .............


E|----------------------------------------------------------------------------------|
B|----------------------------------------------------------------------------------|
G|----------------------------------------------------------------------------------|
D|---10-10-10-----------------------------------------------------------------------|
A|---10-10-10-----------------------------------------------------------------------|
E|---8--8--8------------------------------------------------------------------------|
     .......


Verse part 2:

E|----------------------------------------------------------------------------------|
B|----------------------------------------------------------------------------------|
G|---12-12--12-12--12-12--12-12-----------------------------------------------------|
D|----x--x---x--x---x--x---x--x--9-9-9-9-9-9-9-9--10-10-10-10-10-10-10-10-----------|
A|---10-10--10-10--10-10--10-10--9-9-9-9-9-9-9-9--10-10-10-10-10-10-10-10-----------|
E|-------------------------------7-7-7-7-7-7-7-7---8--8--8--8--8--8--8--8-----------|
Palm Mute                        ...............   ......................


Chorus:

E|----------------------------------------------------------------------------------|
B|----------------------------------------------------------------------------------|
G|-12-12-12-12-12-12-12-12-12-12-12-12-12-12-12-12-------------------7-7-7-7-7-7-7-7|
D|-12-12-12-12-12-12-12-12-12-12-12-12-12-12-12-12--9-9-9-9-9-9-9-9--7-7-7-7-7-7-7-7|
A|-10-10-10-10-10-10-10-10-10-10-10-10-10-10-10-10--9-9-9-9-9-9-9-9--5-5-5-5-5-5-5-5|
E|--------------------------------------------------7-7-7-7-7-7-7-7-----------------|

E|----------------------------------------------------------------------------------|
B|----------------------------------------------------------------------------------|
G|----12-12-12-12-12-12-12-12-12-12-12-12-12-12-12-12-------------------------------|
D|-7--12-12-12-12-12-12-12-12-12-12-12-12-12-12-12-12--9-9-9-9-9-9-9-9-9--7-7-7-7-7-|
A|-7--10-10-10-10-10-10-10-10-10-10-10-10-10-10-10-10--9-9-9-9-9-9-9-9-9--7-7-7-7-7-|
E|-5---------------------------------------------------7-7-7-7-7-7-7-7-7--5-5-5-5-5-|

E|----------------------------------------------------------------------------------|
B|----------------------------------------------------------------------------------|
G|----------------------------------------------------------------------------------|
D|---7-7-7--------------------------------------------------------------------------|
A|---7-7-7--------------------------------------------------------------------------|
E|---5-5-5--------------------------------------------------------------------------|


Chorus Part 2:

E|----------------------------------------------------------------------------------|
B|----------------------------------------------------------------------------------|
G|----------------------------------------------------------------------------------|
D|-10-10-10-10-10-10-10-10-10-10-10-10-10-10-10--12-12-12-12-12-12-12-12-12-12-12-12|
A|-10-10-10-10-10-10-10-10-10-10-10-10-10-10-10--12-12-12-12-12-12-12-12-12-12-12-12|
E|--8--8--8--8--8--8--8--8--8--8--8--8--8--8--8--10-10-10-10-10-10-10-10-10-10-10-10|


Riff:

E|-------------------------------------------------------------------------------|
B|-------------------------------------------------------------------------------|
G|---12-12-12-12-12-12--11-11--14-14-14-14--12-12-12-12--12-12-------------------|
D|----x--x--x--x--x--x---x--x---x--x--x--x---x--x--x--x---x--x-------------------|
A|---10-10-10-10-10-10---9--9--12-12-12-12--10-10-10-10--10-10-------------------|
E|-------------------------------------------------------------------------------|


End:
Finish on:

E|--------------|
B|--------------|
G|--------------|
D|---5----------|
A|---5----------|
E|---3----------|


Order:

Intro                 x3
Intro Part 2          x1
Verse Part 1          x4
Intro                 x2
Verse Part 1          x2
Verse Part 2          x1
Verse Part 1          x1
Chorus                x2
Intro                 x2
(Pause)
Verse Part 1          x2
Chorus                x2
Chorus Part 2         x1
Riff                  x3
Chorus                x2
End                   x1


Lyrics :

I dragged this lake looking for corpses
Dusted for prints, pried up the floorboards
Pieces of planes and black box recorders
Don't lie
And I've been preoccupied with these sick, sick senses
That sense DNA on barbed wire fences
Maybe someday I'll find me a suspect
That has no alibi
New Year's Eve was as boring as heaven
I watched flies *** on channel 11
There was no one to kiss, there was nothing to drink
Except some old rotten milk someone left in the sink
And there's no ring on the phone anymore
There's no reason to call I passed out on the floor
Smoked myself stupid and drank my insides raisin dry
But at the right place at the right time
I'll be dead wrong and you'll be just fine
And I won't have to quit doing ***ed up ***
For anyone but me
And at the right place at the right time
It will have been worth it to stand in line
And you won't have to stop
Saying "I love cops" for anyone but me
Your private eye


Yet Another Great Cover!
            
Tabs too difficult? Try these video lessons and learn fast.


comments powered by Disqus
↑ Back to top | Tablatures and chords are parodies/interpretations of the original songs. You may use it for private study, scholarship, research or language learning purposes only