» » »

Unsigned, Addicted To Nothing - Cover Song #3 Tabs (ver.2)

Artists:  A B C D E F G H I J K L M N O P Q R S T U V W X Y Z # 

Addicted To Nothing - Cover Song #3 Tabs (ver.2)

Unsigned Tabs
Rating:
0/5 (0 votes)
Hard to play? Try these video lessons and learn fast.
                Addicted To Nothing Covering: "Nirvana - About A Girl"

Tuning: E, A, D, G, B, E


Introduction:        

E|---0-0-0-3-3-3-3-0-0-0-0-3-3-3-3-----------------------------------|
B|---0-0-0-0-0-0-0-0-0-0-0-0-0-0-0-----------------------------------|
G|---0-0-0-0-0-0-0-0-0-0-0-0-0-0-0-----------------------------------|
D|---2-2-2-0-0-0-0-2-2-2-2-0-0-0-0-----------------------------------| 
A|---2-2-2-2-2-2-2-2-2-2-2-2-2-2-2-----------------------------------|
E|---0-0-0-3-3-3-3-0-0-0-0-3-3-3-3-----------------------------------|


Then it goes:

E|-------------------------------------------------------------------|
B|-------------------------------------------------------------------|
G|---6--6-6----------------------------------------------------------|
D|---4--4-4-6--6-6-4--4-4--------------------------------------------| <- Play Twice
A|---4--4-4-6--6-6-4--4-4--------------------------------------------|
E|----------4--4-4-2--2-2--------------------------------------------|

E|-------------------------------------------------------------------|
B|-------------------------------------------------------------------|
G|---------9-9-9-----5-5-5-5-----------------------------------------|
D|---2-2-2-9-9-9-7-7-5-5-5-5-----------------------------------------|
A|---2-2-2-7-7-7-7-7-3-3-3-3-----------------------------------------|
E|---------------5-5-------------------------------------------------|


Back To This:

E|---0-0-0-3-3-3-3-0-0-0-0-3-3-3-3-----------------------------------|
B|---0-0-0-0-0-0-0-0-0-0-0-0-0-0-0-----------------------------------|
G|---0-0-0-0-0-0-0-0-0-0-0-0-0-0-0-----------------------------------|
D|---2-2-2-0-0-0-0-2-2-2-2-0-0-0-0-----------------------------------| 
A|---2-2-2-2-2-2-2-2-2-2-2-2-2-2-2-----------------------------------|
E|---0-0-0-3-3-3-3-0-0-0-0-3-3-3-3-----------------------------------|


This Again:

E|-------------------------------------------------------------------|
B|-------------------------------------------------------------------|
G|---6--6-6----------------------------------------------------------|
D|---4--4-4-6--6-6-4--4-4--------------------------------------------| <- Play Twice
A|---4--4-4-6--6-6-4--4-4--------------------------------------------|
E|----------4--4-4-2--2-2--------------------------------------------|

E|-------------------------------------------------------------------|
B|-------------------------------------------------------------------|
G|---------9-9-9-----5-5-5-5-----------------------------------------|
D|---2-2-2-9-9-9-7-7-5-5-5-5-----------------------------------------|
A|---2-2-2-7-7-7-7-7-3-3-3-3-----------------------------------------|
E|---------------5-5-------------------------------------------------|


Again: 

E|---0-0-0-3-3-3-3-0-0-0-0-3-3-3-3-----------------------------------|
B|---0-0-0-0-0-0-0-0-0-0-0-0-0-0-0-----------------------------------|
G|---0-0-0-0-0-0-0-0-0-0-0-0-0-0-0-----------------------------------|
D|---2-2-2-0-0-0-0-2-2-2-2-0-0-0-0-----------------------------------| 
A|---2-2-2-2-2-2-2-2-2-2-2-2-2-2-2-----------------------------------|
E|---0-0-0-3-3-3-3-0-0-0-0-3-3-3-3-----------------------------------|


Solo:

E|-------------------------------------------------------------------|
B|-------------------------------------------------------------------|
G|-------------9-9-9-/-12-12-12--------------------------------------|
D|---------5h7-9-9-9-/-12-12-12--------------------------------------|<- Play 4 Times
A|-----5h7-----------------------------------------------------------|
E|---0---------------------------------------------------------------|


Then it goes:

E|-------------------------------------------------------------------|
B|-------------------------------------------------------------------|
G|---6--6-6----------------------------------------------------------|
D|---4--4-4-6--6-6-4--4-4--------------------------------------------| <- Play Twice
A|---4--4-4-6--6-6-4--4-4--------------------------------------------|
E|----------4--4-4-2--2-2--------------------------------------------|

E|-------------------------------------------------------------------|
B|-------------------------------------------------------------------|
G|---------9-9-9-----5-5-5-5-----------------------------------------|
D|---2-2-2-9-9-9-7-7-5-5-5-5-----------------------------------------| 
A|---2-2-2-7-7-7-7-7-3-3-3-3-----------------------------------------|
E|---------------5-5-------------------------------------------------|


Again: (With Distortion)

E|---0-0-0-3-3-3-3-0-0-0-0-3-3-3-3-----------------------------------|
B|---0-0-0-0-0-0-0-0-0-0-0-0-0-0-0-----------------------------------|
G|---0-0-0-0-0-0-0-0-0-0-0-0-0-0-0-----------------------------------|
D|---2-2-2-0-0-0-0-2-2-2-2-0-0-0-0-----------------------------------| 
A|---2-2-2-2-2-2-2-2-2-2-2-2-2-2-2-----------------------------------|
E|---0-0-0-3-3-3-3-0-0-0-0-3-3-3-3-----------------------------------|


Then This:

E|-------------------------------------------------------------------|
B|-------------------------------------------------------------------|
G|---6--6-6----------------------------------------------------------|
D|---4--4-4-6--6-6-4--4-4--------------------------------------------| <- Play Twice
A|---4--4-4-6--6-6-4--4-4--------------------------------------------|
E|----------4--4-4-2--2-2--------------------------------------------|

E|-------------------------------------------------------------------|
B|-------------------------------------------------------------------|
G|---------9-9-9-----5-5-5-5-5-5-5-5---------------------------------|
D|---2-2-2-9-9-9-7-7-5-5-5-5-5-5-5-5---------------------------------| <- Play Twice
A|---2-2-2-7-7-7-7-7-3-3-3-3-3-3-3-3---------------------------------|
E|---------------5-5-------------------------------------------------|


Finish With This:

E|---0-0-0-3-3-3-3-0-0-0-0-3-3-3-3-0----------------------------------|
B|---0-0-0-0-0-0-0-0-0-0-0-0-0-0-0-0----------------------------------|
G|---0-0-0-0-0-0-0-0-0-0-0-0-0-0-0-0----------------------------------|
D|---2-2-2-0-0-0-0-2-2-2-2-0-0-0-0-2----------------------------------| 
A|---2-2-2-2-2-2-2-2-2-2-2-2-2-2-2-2----------------------------------|
E|---0-0-0-3-3-3-3-0-0-0-0-3-3-3-3-0----------------------------------|


Final Note:

E|---0---|
B|---0---|
G|---0---|
D|---2---|
A|---2---|
E|---0---|


Lyrics:

I Need An Easy Friend. 
I Do, With An Ear To Lend. 
I Do Think You Fit This Shoe. 
I Do, Won't You Have A Clue.

[Chorus]

I'll Take Advantage While. 
You Hang Me Out To Dry. 
But I Can't See You Every Night, Free.

I Standing In Your Line.
I Do Hope You Have The Time. 
I Do Pick A Number Too. 
I Do Keep A Date With You.

[Chorus]... 

[Solo]...

I Need An Easy Friend.
I Do, With An Ear To Lend.
I Do Think You Fit This Shoe. 
I Do, Won't You Have A Clue.

I'll Take Advantage While. 
You Hang Me Out To Dry. 
But I Can't See You Every Night. 
No I Can't See You Every Night, Free. I Do. 


There Ya Go! Enjoy!
            

comments powered by Disqus
↑ Back to top | Unsigned Tabs for Addicted To Nothing - Cover Song #3. Lyrics for acoustic guitar and electric guitar. Tablatures and chords are parodies/interpretations of the original songs. You may use it for private study, scholarship, research or language learning purposes only