» » »

Breathing In A New Mentality Tabs (ver.3)

Artists:  A B C D E F G H I J K L M N O P Q R S T U V W X Y Z # 

Breathing In A New Mentality Tabs (ver.3)

Underoath
Rating:
5/5 (5 votes)

Hard to play? Try these video lessons and learn fast.
                                       UNDEROATH
                Breathing in a New Mentality
             not totally sure on Tim's little solo
                Comment and note any mistakes


Drums intro

e-----------------------------------------------------------|
b-----------------------------------------------------------|
g-----------------------------------------------------------|
d--0~~------------------------------------------------------|
a--0~~------------------------------------------------------|
D--0~~------------------------------------------------------|

e----------------------------------------------------|
b----------------------------------------------------|
g----------------------------------------------------| x2
d----------------------------------------------------|
a--5-----------5-----------5-----------5-------------|
D----0-1-0-1-0---0-1-0-1-0---0-1-0-1-0---0-1-0-1s8p0-|

e-----------------------------------|
b-----------------------------------|
g------------------------------7777-|   x3
d------------------------------xxxx-|
a------------------------------5555-|
D--0--0--1-0--6666--0--0--1-0-------|

e----------------------------------       -----|
b----------------------------------       -----|
g--------------------------------7~       -----|
d--------------------------------x~       ---0-|
a--------------------------------5~       ---0-|
D--0--0--1-0--6666-0--0--1-0--1----       ---0-|

              (Keyboard sound effects)

e----------------------|
b----------------------|
g----------------------|
d--0~~---------------6-|
a--0~~-------(5)~----6-|
D--0~~---------------6-|

e--------------------------------------------|
b--------------------------------------------|
g-------(5)---------------------(5)----------|
d-0------------0----------0-------------0--0-|   x4
a-0--------(5)-0---(5)~---0---------(5)-0--0-|
D-0--00--------0----------0--00---------0--0-|

e--------------       -----------------      ---------------------------|
b--------------       -----------------      ---------------------------|
g--------------       -----------------      ---------------------------|
d--0-0-3-1----- x4    -----xxxx-0-0-3-1- x1  -00-00-xxxx-0-0-0--0-0-3-1-| x4
a--0-0-3-1-----       -----xxxx-0-0-3-1-     -00-00-xxxx-0-0-0--0-0-3-1-|
D--0-0-3-1-----       -----xxxx-0-0-3-1-     -00-00-xxxx-0-0-0--0-0-3-1-|

e-----------------------------|
b-----------------------------|
g-----------------------------|
d--0-0-xxxx-0-0-0--0-0-xxxx-0-|
a--0-0-xxxx-0-0-0--0-0-xxxx-0-|
D--0-0-xxxx-0-0-0--0-0-xxxx-0-|
            
Hard to play? Try these video lessons and learn fast. | Correct




comments powered by Disqus
↑ Back to top | Tablatures and chords are parodies/interpretations of the original songs. You may use it for private study, scholarship, research or language learning purposes only