» » »

Underoath, When The Sun Sleeps Tabs (ver.1)

Artists:  A B C D E F G H I J K L M N O P Q R S T U V W X Y Z # 

When The Sun Sleeps Tabs (ver.1)

Underoath Tabs
 Rating:
4/5 (4 votes)
When The Sun Sleeps lessons Tabs too difficult? Try these video lessons and learn fast
1
                INTRO
E----------------------------------------------------------------
B----------------------------------------------------------------
G-------4---------------4-------------4-------7------------------
D----5-----5----5----5-----5---5----5---5---5---5----------------
A-7-----------7---5----------5---3--------3-------3--------------
E----------------------------------------------------------------

REST OF THE SONG IS BASED ON THESE CHORDS
E----------------------------------------------------------------
B----------------------------------------------------------------
G-4--4--4--7-4---------------------------------------------------
D-5--5--5--5-5---------------------------------------------------
A-7--5--3--3-4---------------------------------------------------
E----------------------------------------------------------------

DURING THE VERSES GUITAR 2 DOES LITTLE RIFFS LIKE THIS
E----------------------------------------------------------------
B----------------------------------------------------------------
G---12--12--11--11--14--14--12--12--11--11-----------------------
D----------------------------------------------------------------
A----------------------------------------------------------------
E----------------------------------------------------------------
            
Submit corrections

comments powered by Disqus
↑ Back to top | Underoath Tabs for When The Sun Sleeps. Lyrics for acoustic guitar and electric guitar. 1 Tablatures and chords are parodies/interpretations of the original songs. You may use it for private study, scholarship, research or language learning purposes only