» » »

Breathing In A New Mentality Bass tabs (ver.1)

Artists:  A B C D E F G H I J K L M N O P Q R S T U V W X Y Z # 

Breathing In A New Mentality Bass tabs (ver.1)

Underoath
Rating:
5/5 (1 vote)

Hard to play? Try these video lessons and learn fast.
                -----------------------------------------------------------------------------
-------------------------------------------------------------------------------

 Tuning:Drop D

 x4
G|-----------------------|
D|-----------------------|
A|5----------------------|
D|---0-1-0-1-0-----------|

 Pause

 x8
G|-----------------------|
D|-----------------------|
A|5----------------------|
D|---0-1-0-1-0-----------|
 
 x8
G|-----------------------|
D|-----------------------|
A|-----------------------|
D|0--0-1-0--666/---------|

 x1
G|-----------|
D|-----------|
A|-----------|
D|5~---------|

 x3
G|---------------------------------|
D|---------------------------------|
A|---------------------------------|
D|0-00-6-0-0---0-00-6-0-0--0-------|

 x4
G|------------------------|
D|------------------------|
A|--5---6~-8-6-5/10~------|
D|3---3-------------------|

 x4
G|---------------------------------|
D|---------------------------------|
A|--5------------------------------|
D|3---3-1~--0-0-xxx-0-0-0----------|

 x1
G|-------------------|
D|-------------------|
A|-------------------|
D|0-0-xxx-0-0-0------|

 x1
G|-------------------|
D|-------------------|
A|-------------------|
D|0-0-xxx-0----------|
            
Hard to play? Try these video lessons and learn fast. | Correct




comments powered by Disqus
↑ Back to top | Tablatures and chords are parodies/interpretations of the original songs. You may use it for private study, scholarship, research or language learning purposes only