» » »

Underoath, Breathing In A New Mentality Tabs (ver.1)

Artists:  A B C D E F G H I J K L M N O P Q R S T U V W X Y Z # 

Breathing In A New Mentality Tabs (ver.1)

Underoath Tabs
Rating:
4/5 (6 votes)
Breathing In A New Mentality lessons Tabs too difficult? Try these video lessons and learn fast
                -------------------------------------------------------------------------------
-------------------------------------------------------------------------------


Tuning: Drop D

Breathing in a new mentality:


"I'm the desperate 
and your the saviour"

The Guitars don't come until 23 seconds into the song:

Both guitars:
Main riff
e|---------------------------------------------------------------------------|
B|---------------------------------------------------------------------------|
G|---------------------------------------------------------------------------|
D|--12--0--1--0---1p0----6p0-------------------------------------------------|
A|--12--0--1--0---1p0----6p0-------------------------------------------------|
E|--12--0--1--0---1p0----6p0-------------------------------------------------|


"Oh, God! My hands are shaking again..."

James:
e|---------------------------------------------------------------------------|
B|---------------------------------------------------------------------------|
G|---------------------------------------------------------------------------|
D|-0-0-1-0----6666---0-0-1-0----666---0-0-1-0----6666---0-0--1-0---6~--------|
A|-0-0-1-0----6666---0-0-1-0----666---0-0-1-0----6666---0-0--1-0---6~--------|
E|-0-0-1-0----6666---0-0-1-0----666---0-0-1-0----6666---0-0--1-0---6~--------|

Tim:

e|---------------------------------------------------------------------------|
B|---------------------------------------------------------------------------|
G|------------7777--------------777--------------7777--------------7\--------|
D|-0-0-1-0----6666---0-0-1-0----666---0-0-1-0----6666---0-0--1-0---6\--------|
A|-0-0-1-0----5555---0-0-1-0----555---0-0-1-0----5555---0-0--1-0---5\--------|
E|-0-0-1-0-----------0-0-1-0----------0-0-1-0-----------0-0--1-0-------------|

both guitars:
e|--0-------------------------------------------------------------------------|
B|--4-------------------------------------------------------------------------|
G|--0-------------------------------------------------------------------------|
D|--0-------------------------------------------------------------------------|
A|--0-------------------------------------------------------------------------|
E|--0-------------------------------------------------------------------------|

around (1:05) starts the fuzz bass that does this riff 

"I'm the desperate 
and your the saviour"

tim:
e|---------------------------------------------------------------------------|
B|---------------------------------------------------------------------------|
G|---------5------------------5----------------------------------------------|
D|-0---xx--4--0-0------0--xx--4--0-0----0--0--0------------------------------|
A|-0---xx--3--0-0------0--xx--3--0-0----0--0--0------------------------------|
E|-0---xx-----0-0------0--xx-----0-0----0--0--0------------------------------|
James:
e|---------------------------------------------------------------------------|
B|---------------------------------------------------------------------------|
G|---------------------------------------------------------------------------|
D|-0---xx--6--0-0------0--xx--6--0-0----0--0--0------------------------------|
A|-0---xx--6--0-0------0--xx--6--0-0----0--0--0------------------------------|
E|-0---xx--6--0-0------0--xx--6--0-0----0--0--0------------------------------|


then the song slowly breaks down:

with (Play a couple of times)
e|---------------------------------------------------------------------------|
B|---------------------------------------------------------------------------|
G|---------------------------------------------------------------------------|
D|---------------------------------------------------------------------------|
A|-----5---------------------------------------------------------------------|
E|-0-------3-----1b----------------------------------------------------------|

e|---------------------------------------------------------------------------|
B|---------------------------------------------------------------------------|
G|---------------------------------------------------------------------------|
D|--------------1---0-0---xxxx---0-0-0-0-------------------------------------|
A|-----5--------1---0-0---xxxx---0-0-0-0-------------------------------------|
E|-0-------3----1---0-0---xxxx---0-0-0-0-------------------------------------|

PLay this until 

"tear me down"

e|---------------------------------------------------------------------------|
B|---------------------------------------------------------------------------|
G|---------------------------------------------------------------------------|
D|--------------1---0-0---xxxx---0-0-0-0-----0--0----xxxx---0----------------|
A|-----5--------1---0-0---xxxx---0-0-0-0-----0--0----xxxx---0----------------|
E|-0-------3----1---0-0---xxxx---0-0-0-0-----0--0----xxxx---0----------------|




===============================================================================
            

comments powered by Disqus
↑ Back to top | Underoath Tabs for Breathing In A New Mentality. Lyrics for acoustic guitar and electric guitar. Tablatures and chords are parodies/interpretations of the original songs. You may use it for private study, scholarship, research or language learning purposes only