» » »

Underoath, Breathing In A New Mentality Bass tabs (ver.2)

Artists:  A B C D E F G H I J K L M N O P Q R S T U V W X Y Z # 

Breathing In A New Mentality Bass tabs (ver.2)

Underoath Tabs
Rating:
0/5 (0 votes)
Breathing In A New Mentality lessons Tabs too difficult? Try these video lessons and learn fast
                -----------------------------------------------------------------------------
			     "Breathing In A New Mentality" - Underoath
-----------------------------------------------------------------------------

 

Tuning: Drop D

Main riff: repeats throughout the song
G|--------------------------------------------------------------------------|
D|--------------------------------------------------------------------------|
A|-5------------------------------------------------------------------------|
D|---0-1-0-1h0-6h0----------------------------------------------------------|

Variation on Main riff:
G|--------------------------------------------------------------------------|
D|--------------------------------------------------------------------------|
A|--------------------------------------------------------------------------|
D|-0-0-1-0-1h0-6h0----------------------------------------------------------|

G|--------------------------------------------------------------------------|
D|--------------------------------------------------------------------------|
A|--------------------------------------------------------------------------|
D|-0-x-xx-6-0-0--x--x--0-x-xx-6-0-0--0--------------------------------------|

G|---7----------------------------------------------------------------------|
D|-0---3-1--3--1----5-------------------------------------------------------|
A|----------------3----3----------------------------------------------------|
D|--------------------------------------------------------------------------|

G|--------------------------------------------------------------------------|
D|--------------------------------------------------------------------------|
A|---5----------------------------------------------------------------------|
D|-0---3-1--0--0--xxxx-0-0-0------------------------------------------------|

G|--------------------------------------------------------------------------|
D|--------------------------------------------------------------------------|
A|--------------------------------------------------------------------------|
D|-0--0--xxxx-0-0-0--x--0--0--xxxx-0----------------------------------------|


| /  slide up
| \  slide down
| h  hammer-on
| p  pull-off
| ~  vibrato
| +  harmonic
| x  Mute note
===============================================================================
            

comments powered by Disqus
↑ Back to top | Underoath Bass for Breathing In A New Mentality. Lyrics for acoustic guitar and electric guitar. Tablatures and chords are parodies/interpretations of the original songs. You may use it for private study, scholarship, research or language learning purposes only