>
 >
Angel Below

Angel Below Guitar Tabs

Underoath - Angel Below chords, tabs, tablatures, lyrics

Guitar lessons | Add/correct | Request | Top 50 tabs Artists:  A B C D E F G H I J K L M N O P Q R S T U V W X Y Z 0-9

Angel Below Guitar Tabs – Underoath

CD, Sheet music, Poster

Do you like Angel Below? Share with your friends now
Bass TabsTabsTabs v2
-------------------------------------------------------------------------------
-------------------------------------------------------------------------------

Coudn't find a decent tab for this anywhere so here it is.
This if my first tab but I'm absolutely positive this is 99.9% perfect,
except maybe missing a palm mute here and there.

Guitar 1: DADGBE
Guitar 2: DADGBE

GTR 1,2
(00:05)
e|------------------|           e|-----------------|
B|------------------|           B|-----------------|
G|------------------|       OR  G|-----7-----------|
D|-0-0-12-5-5-8-8-8-| 8x        D|-0-0-7-5-5-8-8-8-| 8x
A|-0-0-12-5-5-8-8-8-|           A|-0-0-5-5-5-8-8-8-|
D|-0-0-12-5-5-8-8-8-|           D|-0-0---5-5-8-8-8-|

GTR 1,2
(00:23)         
e|---------------------------------------------|
B|---------------------------------------------|
G|---------------------------------------------|
D|-0----------7-3-7-3-3-5-7--7-3-7-3-3-5-7-----|
A|-0----------7-3-7-3-3-5-7--7-3-7-3-3-5-7-----|
D|-0----------7-3-7-3-3-5-7--7-3-7-3-3-5-7-----|

GTR 1,2              
(00:34)
e|-----------------|
B|-----------------|
G|-----------------|
D|-7-7\3-3/7-7\3/5-| 4x
A|-7-7\3-3/7-7\3/5-|
D|-7-7\3-3/7-7\3/5-|

GTR 1
(00:45)
e|-----------------------|
B|-----------------------|
G|-----------------------|
D|-7------5------3-------| 4x
A|-7-(8x)-5-(8x)-3-(16x)-|
D|-7------5------3-------|

GTR 2
(00:45)    
e|-----------------------|
B|-----------------------|
G|-----------------------|
D|-7------5------3-------| 2x
A|-7-(8x)-5-(8x)-3-(16x)-|
D|-7------5------3-------|

e|-----------------------------------------------------------------------|
B|-----------------------------------------------------------------------|
G|-----------------------------------------------------------------------|
D|-----------------------------------------------------------------------|
A|-77777777-55555555-33333333-1212121212121212-1010101010101010-88888888-|
D|-----------------------------------------------------------------------|

GTR 1,2
(01:07)
e|--------------------------------------------------------------|
B|--------------------------------------------------------------|
G|--------------------------------------------------------------|
D|-7-7--3-3--5-5--7-7---3-3--5-5--7-7---3-3--5-5--7-7---7-------|
A|-7-7--3-3--5-5--7-7---3-3--5-5--7-7---3-3--5-5--7-7---7-(8x)--|
D|-7-7--3-3--5-5--7-7---3-3--5-5--7-7---3-3--5-5--7-7---7-------|

GTR 1,2
(01:18)
e|-----------------|
B|-----------------|
G|-----------------|
D|-7-7\3-3/7-7\3/5-| 4x
A|-7-7\3-3/7-7\3/5-|
D|-7-7\3-3/7-7\3/5-|

GTR 1
(01:29)
e|---------------------------------|
B|---------------------------------|
G|---------------------------------|
D|---------------------------------| 12x
A|-6-5-----5-4-----3-2-----1-0-----|
D|-----7-6-----5-4-----4-3-----2-1-|
   . . . . . . . . . . . . . . . .

GTR 2
(01:32)
e|--------------------------------|
B|--------------------------------|
G|--------------------------------|
D|-0-0-0-0------0-0-0-0------0-0--|
A|-0-0-0-0------0-0-0-0------0-0--|
E|-0-0-0-0------0-0-0-0------0-0--|
   . . . .      . . . .      . .

GTR 2
(01:41)
e|---------------------------------|
B|---------------------------------|
G|---------------------------------|
D|-0-0-0-0-0-0-0-0-0-0-0-0-0-0-0-0-| 4x
A|-0-0-0-0-0-0-0-0-0-0-0-0-0-0-0-0-|
E|-0-0-0-0-0-0-0-0-0-0-0-0-0-0-0-0-|
   . . . . . . . . . . . . . . . .

GTR 2
(01:53)
e|--------------------------------------------|
B|--------------------------------------------|
G|--------------------------------------------|
D|--------------------------------------------| 4x
A|-13-12-------12-11-------10-9-------8-7-----|
E|-------14-13-------12-11------11-10-----9-8-|
   .  .  .  .  .  .  .  .  .  . .  .  . . . .

GTR 1
(02:05)
e|----------------------------------------------------|
B|----------------------------------------------------|
G|----------------------------------------------------|
D|---9-10-------------------9-10----------------------| 4x
A|---7-8----5-----7-8-8-----7-8----5-----7-----5------|
D|-0------0---0-0---------0------0---0-0---0-0--------|
          .   . .                .   . .   . .
GTR 2
(02:05)
e|---------------------------------------------------|
B|---------------------------------------------------|
G|---11-12---------------------11-12-----------------|
D|---9--10---------------------9--10-----------------| 4x
A|-----------5-----7-8-8---------------5-----7-----5-|
E|-0-------0---0-0-----------0-------0---0-0---0-0---|
           .   . .                   .   . .   . .       

GTR 1,2
(02:28)
e|------------------------------------------------------|
B|------------------------------------------------------|
G|------------------------------------------------------|
D|----------------------------10-8-8------12-10-10------| 2x
A|-88888888-77777777-55555555-10-8-8(8x)--12-10-10(12x)-|
D|----------------------------10-8-8------12-10-10------|
                                   .            .
GTR 1,2                                         
(02:39)
e|-------------------------------------------------------------|
B|-------------------------------------------------------------|
G|-------------------------------------------------------------|
D|------------------------------------10-8-8-----12-10-10------| 
A|-88888888-77777777-1212121212121212-10-8-8(8x)-12-10-10(12x)-|
D|------------------------------------10-8-8-----12-10-10------|
                                           .           .  
GTR 1,2
(02:45)
e|-----------------------------------------------------|
B|-----------------------------------------------------|
G|-----------------------------------------------------|
D|----------------------------10-8-8-----12-10-10------| 
A|-88888888-77777777-55555555-10-8-8(8x)-12-10-10(12x)-|
D|----------------------------10-8-8-----12-10-10------|
                                   .           .
GTR 1,2                               
(02:50)
e|------------------------------------------|
B|------------------------------------------|
G|------------------------------------------|
D|------------------------------------------|
A|-88888888-77777777-1212121212121212-------|
D|------------------------------------------|

GTR 1,2
(02:53)
e|-------------------------------|
B|-------------------------------|
G|-------------------------------|
D|-0-0-0-0-0-0-0-0-------0-------|
A|-0-0-0-0-0-0-0-0-(8x)--0-------|
D|-0-0-0-0-0-0-0-0-------0-------|
   . . . . . . . .


| /  slide up
| \  slide down
| h  hammer-on
| p  pull-off
| ~  vibrato
| +  harmonic
| x  Mute note
| .  palm mute





Comments


Popular Underoath tabs & chords
Breathing In A New Mentality Bass Tabs
Desperate Times Desperate Measures 3 Bass Tabs
Heart Of Stone Bass Tabs
When The Sun Sleeps Chords
A Moment Suspended In Time Tabs
Smic Tague Tabs
Too Bright To See Too Loud To Hear Tabs
When The Sun Sleeps 2 Tabs
Wrapped Around Your Finger Tabs
A Boy Brushed Red Living In A World Of Black And White Ukulele


Song lyrics



↑ Back to top | Tablatures and chords are parodies/interpretations of the original songs. You may use it for private study, scholarship, research or language learning purposes only
© 2014 AZChords.com Contact us | Privacy policy | DMCA | Add/correct tabs | Request tabs | Top 50 tabs