» » »

Angel Below Bass tabs (ver.1)

Artists:  A B C D E F G H I J K L M N O P Q R S T U V W X Y Z # 

Angel Below Bass tabs (ver.1)

Underoath
Rating:
0/5 (0 votes)

Hard to play? Try these video lessons and learn fast.
                
Intro 0:04 - 0:23 x 5.  Last time hit the open D and let it ring.

G--------------------------------------|
D--------------------------------------|
A--------------------------------------|
D----00---12/5----8-8-8-8--------------|

0:34-0:44
x4
G--------------|
D--------------|
A--------------|
D---7/3\7/3h5--|

0:44-0:56
Tremelo picking x 4
G----------------------------------------------------|
D----------------------------------------------------|
A----------------------------------------------------|
D-777777777777777755555555555555553333333333333333---|

0:56-1:18 x 8
G-----------------------|
D-----------------------|
A-----------------------|
D--7-7-7-7-3-3-5-5------|

1:18-1:29 x 4
G--------------|
D--------------|
A--------------|
D---7/3\7/3h5--|

1:32-1:38
G-------------------|
D-------------------|
A-------------------|
D--0000-0000-00-----|

1:40-2:05  x 8 only slide the first time
G------------------------------------|
D------------------------------------|
A-12\-6p5-00 5p3-00-3p2-00-2p1-00----|
D------------------------------------|

2:05-2:28 x 8
G---------------------------------|
D---------------------------------|
A---78---5---7---8--78---5---7--8-|
D-0----0---0---0---0----0---0---0-|

2:30-2:53
x1
G---------|
D---------|
A---------|
D-0-0-0-0-|

Tremelo picking
G-------------------------------------------------|
D-------------------------------------------------|
A-------------------------------------------------|
D-333333333333333222222222222220000000000000000000

Tremelo picking x 1
G-------------------------------------------------------------------|
D-------------------------------------------------------------------|
A-------------------------------------------------------------------|
D3333333333333333222222222222222222227777777777777777777777-0-0-0-0-|

Tremelo picking x 1
G-------------------------------------------------|
D-------------------------------------------------|
A-------------------------------------------------|
D-333333333333333222222222222220000000000000000000

Tremelo picking x 1
G----------------------------------------------------------|
D----------------------------------------------------------|
A----------------------------------------------------------|
D333333333333333322222222222222222222777777777777777777777-

2:53-3:20
G------------------------------------|
D------------------------------------|
A------------------------------------|
D-0-0-0-0-0-0-0-0-0-0-0-0-00000000-0-|
            
Hard to play? Try these video lessons and learn fast. | Correct




comments powered by Disqus
↑ Back to top | Tablatures and chords are parodies/interpretations of the original songs. You may use it for private study, scholarship, research or language learning purposes only