» » »

Angel Below Tabs (ver.3)

Artists:  A B C D E F G H I J K L M N O P Q R S T U V W X Y Z # 

Angel Below Tabs (ver.3)

Underoath
Rating:
3/5 (4 votes)

Hard to play? Try these video lessons and learn fast.
                
I'm pretty sure this song is in standard tuning.  The tab fits the song
with standard tuning.  For the verse, I only tabbed the keyboard part.

INTRO
|----------------------------------------------------------------------|	
|----------------------------------------------------------------------|	
|-------2---------------------2----------------------------------------|	
|-------2---5-5--8-8----------2---5-5--8-8-----------------------------| x4
|-------0---5-5--8-8----------0---5-5--8-8-----------------------------|	
|--0-0------3-3--6-6-----0-0------3-3--6-6-----------------------------|

VERSE
Keyboard Part During Verse (Keep Repeating)
|----------------------------------------------------------------------|
|----------------------------------------------------------------------|
|---17-16-17--14----17-19-21-19-1716--14----17-16-17--14-----16-14-----|
|----------------------------------------------------------------------|
|----------------------------------------------------------------------|
|----------------------------------------------------------------------|

The 2nd keyboard part is higher, higher than my guitar can go--but this
is it,I cannot even bend for the note
|---20-19-20--17----20-22-24-22-2019--17----20-19-20--17-----19--17----|	
|----------------------------------------------------------------------|
|----------------------------------------------------------------------|	
|----------------------------------------------------------------------|
|----------------------------------------------------------------------|	
|----------------------------------------------------------------------|

BRIDGE (Play Quickly)
|----------------------------------------------------------------------|	
|----------------------------------------------------------------------|	
|----------------------------------------------------------------------|	
|----------------------------------------------------------------------| x12
|---6-5---------5-4---------3-2---------1-0----------------------------|	
|---------7-6---------5-4---------4-3----------2-1---------------------|	

RIFF 1
|----------------------------------------------------------------------|	
|----------------------------------------------------------------------|
|------9--10-------------------------9--10-----------------------------|
|------9--10-------------------------9--10-----------------------------| x4
|------7--8-----5-----7-----8--------7--8-----5-----7-----5------------|	
|---0--------0-----0-----0-------0--------0------0-----0-----(0)-------|	

RIFF 2
|----------------------------------------------------------------------|
|----------------------------------------------------------------------|
|----------------------------------------------------------------------|
|--------------------------------10--8--8888888--12--10-10101010101010-| x2
|-88888888877777777775555555555--10--8--8888888--12--10-10101010101010-|
|---------------------------------8--6--6666666--10--8--8-8-8-8-8-8-8--|

|----------------------------------------------------------------------|
|----------------------------------------------------------------------|
|----------------------------------------------------------------------|
|--------------------------------10--8--8888888--12--10-10101010101010-| 
|-88888888777777777121212121212--10--8--8888888--12--10-10101010101010-|
|---------------------------------8--6--6666666--10--8--8-8-8-8-8-8-8--|	

|----------------------------------------------------------------------|
|----------------------------------------------------------------------|
|----------------------------------------------------------------------|
|--------------------------------10--8--8888888--12--10-10101010101010-| 
|-88888888777777777755555555555--10--8--8888888--12--10-10101010101010-|
|---------------------------------8--6--6666666--10--8--8-8-8-8-8-8-8--|

|----------------------------------------------------------------------|
|----------------------------------------------------------------------|
|----------------------------------------------------------------------|
|----------------------------------------------------------------------| 
|-88888888777777777712121212121212121212-------------------------------|
|----------------------------------------------------------------------|

OUTRO
|----------------------------------------------------------------------|
|----------------------------------------------------------------------|
|----------------------------------------------------------------------|
|--2-2-2-2-2-2-2-2-2-2-2-2-2-2-2-2-2-2-2-2-2-2-2-2-2-------------------|
|--2-2-2-2-2-2-2-2-2-2-2-2-2-2-2-2-2-2-2-2-2-2-2-2-2--keep going, etc.-|
|--0-0-0-0-0-0-0-0-0-0-0-0-0-0-0-0-0-0-0-0-0-0-0-0-0-------------------|
            
Hard to play? Try these video lessons and learn fast. | Correct




comments powered by Disqus
↑ Back to top | Tablatures and chords are parodies/interpretations of the original songs. You may use it for private study, scholarship, research or language learning purposes only