» » »

Angel Below Tabs (ver.2)

Artists:  A B C D E F G H I J K L M N O P Q R S T U V W X Y Z # 

Angel Below Tabs (ver.2)

Underoath
Rating:
0/5 (0 votes)

Hard to play? Try these video lessons and learn fast.
                e|-----------|
b|-----------|
g|-----------|
d|-----8-8-5-|
a|-0-0-8-8-5-|x8 
D|-0-0-8-8-5-| 

|-------------|
|-------------|
|-------------|
|-------------|
|-7/3/7/3-3h5-|
|-7/3/7/3-3h5-|x8 

|-----------------------------------------------------------------|
|-----------------------------------------------------------------|
|-----------------------------------------------------------------|
|-----------------------------------------------------------------|
|-----------------------------------------------------------------|
|-7-7-7-7-7-7-7-7-5-5-5-5-5-5-5-5-3-3-3-3-3-3-3-3-3-3-3-3-3-3-3-3-| x4 
pm............................................................... 

|--------------------|
|--------------------|
|--------------------|
|-7-7--3-3--5-5--7-7-|
|-7-7--3-3--5-5--7-7-|x4 
|-7-7--3-3--5-5--7-7-|

|-------------|
|-------------|
|-------------|
|-------------|
|-7/3/7/3-3h5-|
|-7/3/7/3-3h5-| x4 

|---------------------------------| 
|---------------------------------|
|---------------------------------|
|---------------------------------|I'm not too sure about this one 
|-6h5-0-0-5h3-0-0-3-0-0-0-3h2-0-0-|
|---------------------------------|
pm............................... 


|-----------------------------------------|
|-----------------------------------------|
|---9-10---------------9-10---------------|
|---x--x---------------x--x---------------|
|-0-7--8---5---7---8---7--8---5---7---5h7-|x8 
|-0------0---0---0---0------0---0---0-----| 

|--------------|
|--------------|
|--------------|
|--------------|
|-888777555555-|
|--------------| 

|-----------------------------------------------|
|-----------------------------------------------|
|-----------------------------------------------|
|-----------------------------------------------|
|-10-----------------12-------------------------|
|-10-8-8-8-8-8-8-8-8-12-10-10-10-10-10-10-10-10-|

|--------------------| 
|--------------------|
|--------------------|
|--------------------|
|-888777121212121212-|
|--------------------|

|-----------|
|-----------|
|-----------|
|-0-0-0-0-0-|
|-0-0-0-0-0-|x8 
|-0-0-0-0-0-|
            
Hard to play? Try these video lessons and learn fast. | Correct




comments powered by Disqus
↑ Back to top | Tablatures and chords are parodies/interpretations of the original songs. You may use it for private study, scholarship, research or language learning purposes only