» » »

Umphreys Mcgee, Walletsworth Tabs (ver.2)

Artists:  A B C D E F G H I J K L M N O P Q R S T U V W X Y Z # 

Walletsworth Tabs (ver.2)

Umphreys Mcgee Tabs
Rating:
0/5 (0 votes)
Walletsworth lessons Tabs too difficult? Try these video lessons and learn fast
                Main riff
E-----------------------------------------------------|
B-----------------------------------------------------|
G-----------------------------------------------------|
D-----------------------------------------------------|
A---5-7---7-9---9-10-12-9----5-7---7-9---5-7-5-4------|
E-0-----0-----0------------0-----0-----0--------------|

Accompanying lead (also played lower on the neck,
E-----------------------------------------------------|
B-----------------------------------------------------|
G--/9\7---------------------9\7--------9/11/12-11-----|
D--/9\7-9-7\5---9-7\5/9-----9\7-9-7\5--9/11/12-11-----|
A-------9-7\5---9-7\5/9---------9-7\5-----------------|
E-----------------------------------------------------|

Lead in to other part Bb
E-----------------------------------------------------|
B-----------------------------------------------------|
G-----------------------------------------------------|
D-----12-11------10-9---8----8----8--7/8--------------|
A---11-----10---9----8--7----7----7--6/7--------------|
E-10---------9-8------7-6----6----6--5/6--------------|


Ending chords

Bm F#m A C#m

3 beats per chord here

  Would you be my be my only address
Bm             F#m      A    C#m

  I can only offer a walletsworth
Bm        F#m        A      C#m
            
Submit corrections

comments powered by Disqus
↑ Back to top | Umphreys Mcgee Tabs for Walletsworth. Lyrics for acoustic guitar and electric guitar. Tablatures and chords are parodies/interpretations of the original songs. You may use it for private study, scholarship, research or language learning purposes only