>
 >
Higgins

Higgins Guitar Tabs

Umphreys Mcgee - Higgins chords, tabs, tablatures, lyrics

Guitar lessons | Add/correct | Request | Top 50 tabs Artists:  A B C D E F G H I J K L M N O P Q R S T U V W X Y Z 0-9

Higgins Guitar Tabs – Umphreys Mcgee

CD, Sheet music, Poster

Do you like Higgins? Share with your friends now
Tabs
Verse
The top part is jakes and underneath is bb
For jake's part, use lots of palm muting as usual, and lots of variation (as usual)

    Bm7                             G               G#dim
  |-----------------2-2---------------------------------------------|
  |----------------x----3-------------------3---------------3-------|
  |---------------x---------4-----------4-------4-4-----4-------4-4-|
  |--------------x--------------4---5-5-------------6-6-------------|
  |-----------------------------------------------------------------|
  |-----------------------------------------------------------------|
  |                                                                 |
  |-----2-------2-------2-------2-------2-------2-------2-------2---|
  |-----3-------3-------3-------3-------3-------3-------3-------3---|
  |-----------------------------------------------------------------|
  |-----------------------------------------------------------------|
  |-----------------------------------------------------------------|
  |-----------------------------------------------------------------|

    D                                               Em7
  |-10-10-------------------------------------------------------------------------------------------|
  |-------10-10------------------------------------------------h8-----7~----------------------7h8---|
  |-------------11-11-------------------------------------------7-----7~----------------------7-----|
  |-------------------12-12------------------------------------h9-----7~----------------------7h9---|
  |-------------------------------------------------------------------------------------------------|
  |-------------------------------------------------0-----------------------------------------------|
  |                                                                                                 |
  |-------2-----------2-----------2-----------2-----------2-----------2-----------2-----------2-----|
  |-------3-----------3-----------3-----------3-----------3-----------3-----------3-----------3-----|
  |-------------------------------------------------------------------------------------------------|
  |-------------------------------------------------------------------------------------------------|
  |-------------------------------------------------------------------------------------------------|
  |-------------------------------------------------------------------------------------------------|

  It's a terrible conversation
  And even worse of a thing to plan
  That's the world we know

  Without any variations
  When there's nothing to understand
  Or care to call your own

    Csus2           Bbsus2
  |-3---------------1---------------|
  |-3---------------1---------------|
  |-5---------------3---------------|
  |-5---------------3---------------|
  |-3---------------1---------------|
  |---------------------------------|

  When it's all said and done it's enough to go

Brief pause on E then

    F#dim scale
  |-----------------8-5-------------------------------14h15p14h15p14h15p14h15p14~---|
  |---------------------7-----------------------------------------------------------|
  |-------------5-8-------8-5----------------11-14----------------------------------|
  |---------4-7---------------7--------10-13----------------------------------------|
  |-----3-6-----------------------9-12----------------------------------------------|
  |-2-5-----------------------------------------------------------------------------|

Repeat all from the beginning, with these lyrics

  When there's not any deal to bargain
  Or an arguments table set
  The lecture never comes

  It's the epitomy of frustration
  Cause it's a problem already met
  And you learn to bite your tongue

  When it's all said and done it's enough to go

Then this twice

  |---------------------------------|-------------------------------------------|
  |---------------------------------|-------3/5\3-------------3/5\3-----5-------|
  |*-1h2----------------------------|-1h2---------0----------------------------*|
  |*-----0-2-----------5---6---7----|-----0-------------------------4-----3----*|
  |----------020-------5---6---7----|-------------------------------------------|
  |--------------7\----3---4---5----|-------------------------------------------|
        pm .

Now this 4 times, pm the low end

    A                             D        D/C#    D/B     D/A
  |----------------------------------|---------------------------------|
  |--5---------7---9-------5-------3-|--3---3---3---3---3---3-3--------|
  |*-2-----------------------------2-|----2-2-----2-2-----2-2---2-----*|
  |*-2---------4---6-------2-------0-|0-------------------------------*|
  |--0-0-0-0-0-0-0-0-0-0-0-0-0-0-0---|------4-4-----2-2-----0-----0----|
  |----------------------------------|---------------------------------|

  I hope your expectations
  Were lower than before
  I'll wish away the difference
  Who needs that anymore

And then this twice

    Bm              Bm/C#           Bm/D            Bm/G#                                  
  |-----------------------------------------------------------------|
  |-----------------------------------------------------------------|
  |-----4-----4---4-----4-----4---4-----4-----4---4-----4-----4---4-|
  |---4-----4---------4-----4---------4-----4---------4-----4-------|
  |-2-----2-----2---4-----4-----4---5-----5-----5-------------------|
  |-------------------------------------------------4-----4-----4---|
  |                                                                 |
  |-------0-0-0-0-0-------0-0-0-0-0-------0-0-0-0-0-------0-0-0-0-0-|
  |-------3-3-3-3-3-------3-3-3-3-3-------3-3-3-3-3-------3-3-3-3-3-|
  |-------4-4-4-4-4-------4-4-4-4-4-------4-4-4-4-4-------4-4-4-4-4-|
  |-----------------------------------------------------------------|
  |-----------------------------------------------------------------|
  |-----------------------------------------------------------------|

Now a quick Em > G and then back to the verse.  Do it all again with these lyrics

  Another tragedy set in motion
  It's a train that you can't derail
  Weighs more than a ton

  So after scrambling from attention
  Know that you'll probably be revealed
  But now the option's gone

  When it's all said and done it's enough to go

  Without consideration
  Your standards slowly stall
  Like falling off a ladder
  Your time has come and gone

Skip the Em > G transition from the first time, and do this instead
Ending Jam pt.1

             Bm              A       A/G#      G                 F#      F
  |--------|-------------------------------------------------------------------------|
  |--------|-------------------------------------------------------------------------|
  |------4-|-------------------------------------------------------------------------|
  |0h2p0-4-|-4-4-4-4-4-0h2p0-2-2-2h2-----0h2p0-------------0h2p0------h2-----0h2p0-3-|
  |------2-|-2-2-2-2-2-------0-0-0-------------------------------4-------3---------1-|
  |--------|-------------------------4---------3-3-3-3-3-3-------2-------1-----------|
             pm. . . .

             Bb    
           |-------------------------------------------------------------------------|
           |-------------------------------------------------------------------------|
           |-------------------------------------------------------------------------|
           |-3-3-3-3-3-0h2p0-2-2-2h2-----0h2p0-------------0h2p0------h2-----0h2p0-4-|
           |-1-1-1-1-1-------0-0-0-------------5-5-5-5-5-5-------4-------3---------2-|
           |-------------------------4---------3-3-3-3-3-3-------2-------1-----------|

Ending Jam pt.2
Similar to pt.1 but bumped up 3 half steps

  |--------|------------------------------------------------------------------|
  |--------|------------------------------------------------------------------|
  |--------|-----5-----------------5------------------5-----------------------|
  |3h5p3---|---3-------3h5p3-----3--------3h5p3-----3-------3h5p3------/5-----|
  |------5-|-----------------4-------3----------2-----------------1-------0---|
  |--------|------------------------------------------------------------------|

Then back to ending jam pt.1, rip it and end on the G





Comments


Popular Umphreys Mcgee tabs & chords
Bright Lights Chords
Bridgeless Tabs
Bullhead City Tabs
Divisions Tabs
End Of The Road Tabs
Glory Tabs
In The Kitchen Tabs
Intentions Clear Tabs
Wizard Burial Grounds Tabs
Words Tabs


Song lyrics



↑ Back to top | Tablatures and chords are parodies/interpretations of the original songs. You may use it for private study, scholarship, research or language learning purposes only
© 2014 AZChords.com Contact us | Privacy policy | DMCA | Add/correct tabs | Request tabs | Top 50 tabs