» » »

Umphreys Mcgee, Walletsworth Tabs (ver.1)

Artists:  A B C D E F G H I J K L M N O P Q R S T U V W X Y Z # 

Walletsworth Tabs (ver.1)

Umphreys Mcgee Tabs
 Rating:
4/5 (4 votes)
Walletsworth lessons Tabs too difficult? Try these video lessons and learn fast
1
                ----------------------------------------------------------------------------
			     Walletsworth – Umphrey’s McGee
----------------------------------------------------------------------------

Tuning: Standard

| /  slide up
| \  slide down
| h  hammer-on
| p  pull-off
| ~  vibrato
| +  harmonic
| x  Mute note
| .  above note is palm muted 
|... Let Ring
| b  Bend
| AH above note is artificial harmonic
|( ) continue to let note ring

Part A

e|-0--(0)------------------------0--(0)---------0---0---------------------|
B|-3h5p3p0-1p0----/3-1-0-1/3\----3h5p3p0-1p0----5-7-7b8b7-----------------|
G|---------2p0----/4-2-0-2/4\------------2p0------------------------------|
D|------------------------------------------------------------------------|
A|------------------------------------------------------------------------|
E|------------------------------------------------------------------------|
							
e|-0--(0)------------------------3-3--------------------------------------|
B|-3h5p3p0-1p0----/3-1-0-1/3\--------5p3p0-----0--------------------------|
G|---------2p0----/4-2-0-2/4\--------------2h3---3p2p0-----0--------------|
D|-----------------------------------------------------2p0----------------|
A|------------------------------------------------------------------------|
E|-----------------------------------------------------------3~-----------|

Part B
			   Gm6   Fm6Gm6
e|------------------------------------------------------------------------|
B|------------------------------------------------------------------------|
G|-----7-6---------5-4-----3---3--2-3-------------------------------------|
D|---6-----5-----4-----3---2---2--1-2-------------------------------------|
A|-5---------4-3---------2-1---1--0-1-------------------------------------|
E|-------------------------3---3--2-3-------------------------------------|
			          .
Part C

e|---------------------------------------|
B|---------------------------------------|
G|---------------------------------------|
D|-4/5-5/7-7/9--12-9-----4/5-5/7-4/5\4-2-|
A|-5/7-7/9-9/10-12-10----5/7-7/9-5/7\5-4-|
E|---------------------------------------|

e|----------------------------------+5-------|
B|-------------------------------------+5----|
G|----------------------------------------+5-|
D|-4/5-5/7-7/9--12-9-----4/5-5/7-+5----------|
A|-5/7-7/9-9/10-12-10----5/7-7/9-------------|
E|-------------------------------------------|

Uneccesary Fills

e|-----------------|			
B|-----------------|
G|-----------------|
D|-0^2^0^2^0^2^0^2-|
A|-----------------|
E|-----------------|

e|-----------------|			
B|-----------------|
G|-----------------|
D|-----------------|
A|-4^5^4^5^4^5^4^5-|
E|-----------------|

Solo 

e|------------------------------------------------------------------------|
B|-----------------3-5b-5-3-5b-3------------------------------------------|
G|-5b7----3--------3-5b-5-3-5b-3------------------------------------------|
D|-----------5~-------------------5-3-0-3-5-3-0-3-5-3---------------------|
A|----------------------------------------------------5-4-3—1b3b1b2b4b2b--|
E|------------------------------------------------------------------------|
   AH

e|----------------------------------------------------------------3-5-6-0-|
B|--------------------------------------------------6---5---3-5-6---------|
G|----------------------------------5--5--2-3-3-2-3---3---3---------------|
D|------------------------------------------------------------------------|
A|-----1----------1-3b5-3-1-----------------------------------------------|
E|-1h3---3~---1-3-----------3\/5\-----------------------------------------|
		                         . . . . . . . . . . . . . . .
	   
e|-8b10-----------------------------0---15----------------------------15--|
B|----------------------------------0---18b20----18b20-18-15-------15-----|
G|---------0^3^7^12^7^3^14^7^3^15---0------------------------17b19--------|
D|------------------------------------------------------------------------|
A|------------------------------------------------------------------------|
E|------------------------------------------------------------------------|
	  ^Note: The tapping is not OK  

e|-----------------|
B|-----------------|
G|-17b19-17-15\----|
D|-----------------|
A|-----------------|
E|-----------------|

Outro Chords 	Note: The following chord progression is sick. 
		Please hold your cheeks together while playing, 
                as not to sh*t yourself.
		 
  Bm7   F#m7 AMaj7  C#m7
e|-2-----2-----0-----4----|
B|-3-----2-----2-----5----|
G|-2-----2-----1-----4----|
D|-4-----2-----2-----6----|
A|-2-----4-----0-----4----|
E|-------2----------------|

      C#m7
e|-----4...----|
B|-----5...----|
G|-----4...----|
D|-----6...----|
A|-----4...----|
E|-------------|
  
Umphrey's McGee is OK!!!!!!!!!!!!!!!!!!!!!!!!!!!!!!!!!!!!!!!!!!!!!!!!!!!!!!!
            
Submit corrections

comments powered by Disqus
↑ Back to top | Umphreys Mcgee Tabs for Walletsworth. Lyrics for acoustic guitar and electric guitar. 1 Tablatures and chords are parodies/interpretations of the original songs. You may use it for private study, scholarship, research or language learning purposes only