» » »

Umphreys Mcgee, Walletsworth Bass tabs (ver.2)

Artists:  A B C D E F G H I J K L M N O P Q R S T U V W X Y Z # 

Walletsworth Bass tabs (ver.2)

Umphreys Mcgee Tabs
Rating:
5/5 (1 vote)
Walletsworth lessons Tabs too difficult? Try these video lessons and learn fast
                 (intro/main riff 2)
(0:00-0:39)
G---------------------------------------------------------------------------|
D---------------------------------------------------------------------------|
A---------------------------------------------------------------------------|
E--0-10-12-0-12-14-0-14-15-17-14----0-10-12-0-12-14-0-10-12-10-9------------|

(guitar apeggios)
(0:39-0:41)

(Main Riff 1)
(0:41-1:05)
PLEASE LISTEN FOR RYTHM (follows the guitar)
G---------------------------------------------------------------------------|
D---------------------------------------------------------------------------|
A---------------------------------------------------------------------------|
E---12--12--10-12/-----12---12---12--10--12/--------------------------------|

(Main Riff 2)
(1:05-2:06)
G---------------------------------------------------------------------------|
D---------------------------------------------------------------------------|
A---------------------------------------------------------------------------|
E--0-10-12-0-12-14-0-14-15-17-14----0-10-12-0-12-14-0-10-12-10-9------------|

(Main Riff 1)
(2:09-2:30)
PLEASE LISTEN FOR RYTHM (follows the guitar)
G---------------------------------------------------------------------------|
D---------------------------------------------------------------------------|
A---------------------------------------------------------------------------|
E---12--12--10-12/-----12---12---12--10--12/--------------------------------|

(main Riff 2)
(2:34-3:12)
G---------------------------------------------------------------------------|
D---------------------------------------------------------------------------|
A---------------------------------------------------------------------------|
E--0-10-12-0-12-14-0-14-15-17-14----0-10-12-0-12-14-0-10-12-10-9------------|

(quiet section)
(listen very carefully its there, but if you cant hear it its not too necessary)
(3:12-3:37)
G---------------------------------------------------------------------------|
D------------------------9/10/////------------------------------------------|
A------5-7-----------7-------------------5-7--------------------------------|
E----------0----------------------------------0-----------------------------|

(outro)
(Comes back in listen to piano for rythm)
(3:40-4:20)
G------------------(7)------------------------------------------------------|
D--------------(7)-------(7)------------------------------------------------|
A----7-7---5----------------------------------------------------------------|
E----------------------------5--5--7----------------------------------------|
            

comments powered by Disqus
↑ Back to top | Umphreys Mcgee Bass for Walletsworth. Lyrics for acoustic guitar and electric guitar. Tablatures and chords are parodies/interpretations of the original songs. You may use it for private study, scholarship, research or language learning purposes only