» » »

Umphreys Mcgee, Intentions Clear Tabs (ver.1)

Artists:  A B C D E F G H I J K L M N O P Q R S T U V W X Y Z # 

Intentions Clear Tabs (ver.1)

Umphreys Mcgee Tabs
 Rating:
4.2/5 (5 votes)
Intentions Clear lessons Tabs too difficult? Try these video lessons and learn fast
                 ---|-------------------------------------0----------|
  ---|---------------------------0--------0----------|
  ---|--2-----2-2---2---2-------2--------1-----------|
  ---|--2-----2-2---2---2------2---------------------|
  ---|-----------------------------------------------|
  -0-|2-----2-------2---0----------------------------|

  ---|----------------------------------------------|
  ---|----------------------------------------------|
  ---|--2-----2-2---2---2---------------------------|
  ---|--2-----2-2---2---2---------------------------|
  ---|----------------------------------------------|
  -0-|2-----2-------2---3---------------------------|

  You got my number you could make the call
  Until then I won't bother you at all
  I'd let you walk all over me again
  But a smile is something I could not pretend

  And everytime I felt like this was wrong
  You made me feel like I should tag along
  And once or twice it would be nice to see you
  Even if I don't believe you

  F > C > E

  Even if I don't believe the life you lead
  There will always be a time when you would need

  Dsus2 > E > Dsus2 > E

  Someone, something
  Someone, not me

This whole part is doubled an octave higher
This is the jist, the last note of each phrase tends to vary but you get the idea

   F#m7
  --------------------|
  -----------------7--|
  -6---654---4-5-6----|
  ---------7----------|
  --------------------|
  --------------------|

   Gm7
  --------------------|
  -----------------8--|
  -7---765---5-6-7----|
  ---------8----------|
  --------------------|
  --------------------|

   Fm7
  --------------------|
  -6---------------5--|
  -----543---3-4-5----|
  ---------7----------|
  --------------------|
  --------------------|

   F#m7
  --------------------|
  -----------------7--|
  -6---654---4-5-6----|
  ---------7----------|
  --------------------|
  --------------------|

   Gm7
  --------------------|
  -----------------8--|
  -7---765---5-6-7----|
  ---------8----------|
  --------------------|
  --------------------|

   Fm7
  -----------------------------------------------------------------|
  -6---------------5---------------6---------------5---------------|
  -----543---3-4-5-----543---3-4-5-----543---3-4-5-----543---3-4-5-|
  ---------7---------------7---------------7---------------7-------|
  -----------------------------------------------------------------|
  -----------------------------------------------------------------|

   F#m7
  -----------------------------------------------------------------|
  -----------------7---------------7---------------7---------------|
  -6---654---4-5-6-----654---4-5-6-----654---4-5-6-----654---4-5-6-|
  ---------7---------------7---------------7---------------7-------|
  -----------------------------------------------------------------|
  -----------------------------------------------------------------|

   Gm7
  -----------------------------------------------------------------|
  -8---------------8---------------8---------------8---------------|
  -----765---5-6-7-----765---5-6-7-----765---5-6-7-----765---5-6-7-|
  ---------8---------------8---------------8---------------8-------|
  -----------------------------------------------------------------|
  -----------------------------------------------------------------|

   Fm7
  -----------------------------------------------------------------|
  -6---------------5---------------6---------------5---------------|
  -----543---3-4-5-----543---3-4-5-----543---3-4-5-----543---3-4-5-|
  ---------6---------------6---------------6---------------7-------|
  -----------------------------------------------------------------|
  -----------------------------------------------------------------|

   F#m7
  -----------------------------------------------------------------|
  -----------------7---------------7---------------7---------------|
  -6---654---4-5-6-----654---4-5-6-----654---4-5-6-----654---4-5-6-|
  ---------7---------------7---------------7---------------7-------|
  -----------------------------------------------------------------|
  -----------------------------------------------------------------|

   Gm7
  -----------------------------------------------------------------|
  -8---------------8---------------8---------------8---------------|
  -----765---5-6-7-----765---5-6-7-----765---5-6-7-----765---5-6-7-|
  ---------8---------------8---------------8---------------8-------|
  -----------------------------------------------------------------|
  -----------------------------------------------------------------|

   Fm7
  -----------------------------------------------------------------|
  -6---------------5---------------6---------------5---------------|
  -----543---3-4-5-----543---3-4-5-----543---3-4-5-----------------|
  ---------6---------------6---------------6-----------------------|
  -----------------------------------------------------------------|
  -----------------------------------------------------------------|

  There'll be no doubt
  Intentions clear
  We'll hide our thoughts
  Behind the mirror

  There'll be no wrong
  There'll be no right
  But this could be
  A lonely night

  With wintered steps
  Our footprints fall
  But I can't feel
  A thing at all

  C#5>D5>C#5>B5
  C#5>D5>C#5>G5

Back to the beginning

  I know it's wrong to make assumptions
  But without them then I'm left with nothing
  I've always focused on the fractions
  To slowly understand what happened

  I know you've got a lot of questions
  But the answers always aren't the best things
  Once or twice it would be nice to see you
  Even if it's bad for me to

  Even if I don't believe the life you lead
  There will always be a time when you would need

  Someone, something
  Someone, not me

  There'll be no doubt
  Intentions clear
  We'll hide our thoughts
  Behind the mirror

  There'll be no wrong
  There'll be no right
  But this could be
  A lonely night

  With wintered steps
  Our footprints fall
  But I can't feel
  A thing at all
            
Submit corrections

comments powered by Disqus
↑ Back to top | Umphreys Mcgee Tabs for Intentions Clear. Lyrics for acoustic guitar and electric guitar. Tablatures and chords are parodies/interpretations of the original songs. You may use it for private study, scholarship, research or language learning purposes only