>
 >
Pictures Of Matchstick Men

Pictures Of Matchstick Men Guitar Tabs

Type O Negative - Pictures Of Matchstick Men chords, tabs, tablatures, lyrics

Guitar lessons | Add/correct | Request | Top 50 tabs Artists:  A B C D E F G H I J K L M N O P Q R S T U V W X Y Z 0-9

Pictures Of Matchstick Men Guitar Tabs – Type O Negative

CD, Sheet music, Poster

Do you like Pictures Of Matchstick Men? Share with your friends now
Tabs
Tune guitars 2.5 steps below standard:
  low to high B, E, A, D, F#, B

 (Keyboard/clean guitar with chorus and delay)
||-12-12-12-12-12-12-12-12-12-10-10-10-10-10-10-10-10-|
||----------------------------------------------------|
||----------------------------------------------------|
||----------------------------------------------------|
||----------------------------------------------------|
||----------------------------------------------------|

 (Guitar volume swells in bkgrnd)
|-10/14-14-14-14-14-14-14-14-12-12-12-12-12-12-12-||
|-------------------------------------------------||
|-------------------------------------------------||
|-------------------------------------------------||
|-------------------------------------------------||
|-------------------------------------------------||

|-10-11-12-12-12-12-12-12-10-11-12-12-12-12-12-12-12-||
|----------------------------------------------------||
|----------------------------------------------------||
|----------------------------------------------------||
|----------------------------------------------------||
|----------------------------------------------------||

(Heavy distortion with slight chorus)
||--------------------------------------------------------------|
||--------------------------------------------------------------|
||--------------------------------------------------------------|
||-9--9-9-9-11--11/12-12-12-12-------------------12-12-12-12/14-|
||-7--7-7-7--9-X-9/10-10-10-10--9--9/12-12-12-12-10-10-10-10/12-|
||------------------------------7--7/10-10-10-10----------------|
   
                       "OOH"               "AH"   (2 times)
|--------------------||-------------------------------||
|--------------------||-------------------------------||
|--------------------||-------------------------------||
|-14-14-14-12-12-14--||-9-XX-12-9---9---9-9--7--9-11--||
|-12-12-12-10-10-12\-||-7-XX-10-7-X-7-X-7-7--5--7--9--||
|--------------------||-------------------------------||


"When I look up to the sky    I see your eyes in a funny kind of
||--------------------------------------------------------------|
||--------------------------------------------------------------|
||--------------------------------------------------------------|
||-9--9-9-9-11--11/12-12-12-12-------------------12-12-12-12/14-|
||-7--7-7-7--9-X-9/10-10-10-10--9--9/12-12-12-12-10-10-10-10/12-|
||------------------------------7--7/10-10-10-10----------------|
   
                Yellow..."  (6 times)     
|--------------------||
|--------------------||
|--------------------||
|-14-14-14-12-12-14--||
|-12-12-12-10-10-12\-||
|--------------------||

       "OOH"               "AH"   (2 times)
||-------------------------------||
||-------------------------------||
||-------------------------------||
||-9-XX-12-9---9---9-9--7--9-11--||
||-7-XX-10-7-X-7-X-7-7--5--7--9--||
||-------------------------------||

"Pictures of matchstick men and you..."  (3 times)
  pm....|     pm.|      pm..|
||-----------------------------------------||
||-----------------------------------------||
||-----------------------------------------||
||-----------------------2-2-2-2-223344557-||
||-7-7-7-7--7/9-9-9------2-2-2-2-223344557-||
||-5-5-5-5--5/7-7-7-/12\-0-0-0-0-----------||

Bkgrnd guitar...Kenny's just bending the note up and down 1 step
||------------------------------------------||
||-^10-10-10-10-10-10-10-10-10->10-10-10-10-||
||------------------------------------------||
||------------------------------------------||
||------------------------------------------||
||------------------------------------------||

||------------------------------||
||------------------------------||
||--9---9---------7---7---------||
||--9---9---------7---7---------||
||--7---7---------5---5------X\-||
||------------------------------||

"Windows...                                   ...yeah they go"
||--------------------------------------------------------------|
||--------------------------------------------------------------|
||-5---5-5----5---5---5---5-4---4-4-0-------------7---7-7-7---7-|
||-5---5-5----5---5---5-5-5-4---4-4-0-5---5---5-5-7---7-7-7---7-|
||-3--X3-3--X-3-X-3-X-3-3-3-2--X2-2-0-5---5---5-5-5--X5-5-5-X-5-|
||------------------------------------3-X-3-X-3-3---------------|

              "...alone    Oh no!"
|-------------||------------------------------||
|-------------||------------------------------||
|-------------||------------------9---9-------||
|-------------||------------------9---9-------||
|---5-7-5h7p5-||-/9---9-----------7---7---X\--||
|-5-----------||-/7---7---/12\----7---7---X\--||


"...Lie you win the sky,     you win the sky    you make me cry
||--------------------------------------------------------------|
||--------------------------------------------------------------|
||--------------------------------------------------------------|
||-9--9-9-9-11--11/12-12-12-12-------------------12-12-12-12/14-|
||-7--7-7-7--9-X-9/10-10-10-10--9--9/12-12-12-12-10-10-10-10/12-|
||------------------------------7--7/10-10-10-10----------------|
         you..." (3 times)
|--------------------||-----------||
|--------------------||-----------||
|--------------------||-----------||
|-14-14-14-12-12-14--||--2--------||
|-12-12-12-10-10-12\-||--2----X\--||
|--------------------||--0----X\--||

"I can see the matchstick men"   (end bkgd guitar...til fade)
||-----------------------------||-16--16-17\12-12/19-17-16-17-||
||-----------------------------||-----------------------------||
||-----------------------------||-----------------------------||
||------------------------/5~~-||-----------------------------||
||--7-----5---7-4-----3--------||-----------------------------||
||------7-----------5----------||-----------------------------||





Comments


Popular Type O Negative tabs & chords
Be My Druidess Bass Tabs
Black Number One 1 Bass Tabs
Unsuccessfully Coping With The Natural Beauty Of Infidelity Bass Tabs
Cinnamon Girl Tabs
Die With Me Tabs
Haunted Tabs
Haunted 1 Tabs
I Can Lose You Tabs
Kill All The White People Tabs
Wolf Moon Tabs


Song lyrics



↑ Back to top | Tablatures and chords are parodies/interpretations of the original songs. You may use it for private study, scholarship, research or language learning purposes only
© 2014 AZChords.com Contact us | Privacy policy | DMCA | Add/correct tabs | Request tabs | Top 50 tabs