» » »

Kill You Tonight Bass tabs (ver.1)

Artists:  A B C D E F G H I J K L M N O P Q R S T U V W X Y Z # 

Kill You Tonight Bass tabs (ver.1)

Type O Negative
Rating:
0/5 (0 votes)

Hard to play? Try these video lessons and learn fast.
                Type O Negative -  Kill You Tonight (Reprise)  



Intro
:45
G|-------------------------------------|
D|-------------------------------------|
A|2------------------------------------|
E|------3-----5------2-----------------| (X 3)
let the 5 ring on the third time around

Verse
2:10
G|----------------|
D|----------------|
A|----------------|
E|5555555555------|

2:10
G|---------------|
D|---------------|
A|-----5---------|
E|5-55---5-55654-| X 3

G|----------------|
D|----------------|
A|----------------|
E|5555555555------|

G|---------------|
D|---------------|
A|-----5---------|
E|5-55---5-55654-| X 3

G|-----------|
D|-----------|
A|-----------|
E|5555555555-|

Chorus
2:30
G|----------------------------------|
D|----------------------------------|
A|----------------------------------|
E|-1-113-1133-1-113-1133-1-113-1133-|

play
Verse
Chorus
here

Outro
3:40
G|----------------------------------------------------------------|
D|----------------------------------------------------------------|
A|4--------------4------------4--------4-55-4-55-4-55555555555555~| 
E|-----4---3-------4---3-------4--3-------------------------------|

Bass solo
5:20
G|-------------------------------------------------|
D|-6-7---567-567-567----10-9-9-7\--567-567-567~----|
A|-------------------------------------------------|
E|-------------------------------------------------|

5:45
G|--------------------------|
D|--------------------------|
A|-4-----------------------|
E|---4-3-------------------|
            
Hard to play? Try these video lessons and learn fast. | Correct




comments powered by Disqus
↑ Back to top | Tablatures and chords are parodies/interpretations of the original songs. You may use it for private study, scholarship, research or language learning purposes only