» » »

Type O Negative, I Can Lose You Tabs (ver.1)

Artists:  A B C D E F G H I J K L M N O P Q R S T U V W X Y Z # 

I Can Lose You Tabs (ver.1)

Type O Negative Tabs
Rating:
0/5 (0 votes)
I Can	 Lose You lessons Tabs too difficult? Try these video lessons and learn fast
                typeonegative - ican'tloseyou

prettyeasysong

Tune bass, guitar 2.5 steps below standard:
Low to high B, E, A, D, F#, B

           (Play this 8 times, and then "No, I can't lose you..."
           This isn't much of a 'riff', but it plays throughout 
           the song.)
   Guitar w/ heavy distortion
B ||-X---||--------------------------------------------------||
F#||-X---||--12-12-12----12-12-12----12-12-12----12-12-12----||
D ||-X---||-----------11----------11----------11----------11-||
A ||-----||--------------------------------------------------||
E ||-----||--------------------------------------------------||
B ||-----||--------------------------------------------------||
 
"Oh no, no, no..."
||-------------------------------------||
||-------------------------------------||
||-------------------------------------||
||------9----9-7----7-2----2-4-5----7--||
||------9----9-7----7-2----2-4-5----7--||
||------7----7-5----5-0----0-2-3----5--||
            
Submit corrections

comments powered by Disqus
↑ Back to top | Type O Negative Tabs for I Can Lose You. Lyrics for acoustic guitar and electric guitar. Tablatures and chords are parodies/interpretations of the original songs. You may use it for private study, scholarship, research or language learning purposes only