>
 >
Hail Farewell To Britain

Hail Farewell To Britain Guitar Tabs

Type O Negative - Hail Farewell To Britain chords, tabs, tablatures, lyrics

Guitar lessons | Add/correct | Request | Top 50 tabs Artists:  A B C D E F G H I J K L M N O P Q R S T U V W X Y Z 0-9

Hail Farewell To Britain Guitar Tabs – Type O Negative

CD, Sheet music, Poster

Do you like Hail Farewell To Britain? Share with your friends now
Tabs
"Hail & Farewell to Britain"
Tune guitars 2.5 steps below standard
Low to high:  B,E,A,D,F#,b

NOTES:  +=bend string         -v-=whammy bar dip

(First time with bass only)

                         fdbk
b ||---------------------------|--------------||
F#||---------------------------|--------------||
D ||---------------------------|-11-11-11-----||
A ||---------------------------|--9--9--9-----||
E ||---------------------------|-11-10--9--\--||
B ||---------------/9-----(9)--|--------------||

I.  INTRO RIFF  (2 times):
                        -V-                  
||------9-------------------|------9-----------------||
||--------9-----------------|--------9---------------||
||----9---9---11-11-11------|----9---9---11-11-11----||
||-11----------9--9--9------|-11----------9--9--9----||
||-------------7--8--9------|------------11-10--9--\-||
||--------------------------|------------------------||

VERSE:
"Once               upon      a      slime         I"
  pm.................................................|
||----------------------------------------------------||
||----------------------------------------------------||
||----------------------------------------------------||
||----------------------------------------------------||
||-11-11-11--7--7--7--7--7--2--2--4--4--4--4--4--4--4-||
||-/9--9--9--5--5--5--5--5--0--0--2--2--2--2--2--2--2-||

"thought      you     royalty"
  pm......................|
||-------------------------------------------------||
||-------------------------------------------------||
||-------------------------------------------------||
||--------------------------9--9-11-11-11-11-------||
||-11-11-11--7--7--7--7--7--7--7--9--9--9--9-------||
||-/9--9--9--5--5--5--5--5---------------------12\-||

"I                    would      never      have   ques-
  pm.................................................|
||----------------------------------------------------||
||----------------------------------------------------||
||----------------------------------------------------||
||----------------------------------------------------||
||-11-11-11--7--7--7--7--7--2--2--4--4--4--4--4--4--4-||
||-/9--9--9--5--5--5--5--5--0--0--2--2--2--2--2--2--2-||


"-tioned     your    loyalty"
  pm......................|
||------------------------------------------------||
||------------------------------------------------||
||------------------------------------------------||
||--------------------------9--9-11-11-11-11------||
||-11-11-11--7--7--7--7--7--7--7--9--9--9--9------||
||-/9--9--9--5--5--5--5--5--------------------12\-||


"Don't act so surprised..."
"Saw through your diguise"
                 pm         pm        
||---------------------------------------------||
||---------------------------------------------||
||---------------------------------------------||
||--------11---------11---------11---------11\-||
||------------0---0------7---7------9---9------||
||-9---9---------------------------------------||

"      But            with      friends like you pre-"
  pm.................................................|
||----------------------------------------------------||
||----------------------------------------------------||
||----------------------------------------------------||
||----------------------------------------------------||
||-11-11-11--7--7--7--7--7--2--2--4--4--4--4--4--4--4-||
||-/9--9--9--5--5--5--5--5--0--0--2--2--2--2--2--2--2-||


"-fer           my          enemies"
  pm...........................|
||------------------------------------------------||
||------------------------------------------------||
||------------------------------------------------||
||--------------------------9--9-11-11-11-11------||
||-11-11-11--7--7--7--7--7--7--7--9--9--9--9------||
||-/9--9--9--5--5--5--5--5--------------------12\-||

REPEAT INTRO RIFF

REPEAT VERSE


II.  PRE CHORUS:

||------------------------------------------------------||
||------------------------------------------------------||
||------------------------------------------------------||
||-6---6--6--5--4--3----------2--------4---4--4---------||
||-6---6--6--5--4--3----------2--------4---4--4--8+-(8)-||
||-4---4--4--3--2--1---/12\---0---12\--2---2--2--6+-(6)-||
|
|
|Guitar 2               (with delay)
||-------------------16------------------------------||
||-------------------19+-\---------------------------||
||---------------------------------------------------||
||---------------------------------------------------||
||---------------------------------------------------||
||---------------------------------------------------||


||------------------------------------------------------||
||------------------------------------------------------||
||------------------------------------------------------||
||-6---6--7--8--9--3------------------------------------||
||-6---6--7--8--9--3----------2--------4---4--4--8+-(8)-||
||-4---4--5--6--7\-1---/12\---0---12\--2---2--2--6+-(6)-||
|
|
|
|Guitar 2               (with delay)
||-------------------16------------------------------||
||-------------------19+-\---------------------------||
||---------------------------------------------------||
||---------------------------------------------------||
||---------------------------------------------------||
||---------------------------------------------------||

CHORUS:
"I can't believe..."
"Emotional blackmail..."
||-------------------------------------------------------||
||-------------------------------------------------------||
||-------------------------------------------------------||
||--------6--6---------6--6---------4--4-----------------||
||-------------------------------------------------------||
||-4---4--------1---1--------0---0--------2---2---6+-(6)-||


III.  BRIDGE:

(with keyboards)
||--------------|-----|-----|-----||
||--------------|-----|-----|-----||
||-----6--------|-----|-----|-----||
||-----6--------|--%--|--%--|--%--||
||-8-------8.---|-----|-----|-----||
||-6-------6.---|-----|-----|-----||

FULL BAND COMES IN:  (2 times)
||--------------------------------------------------|
||--------------------------------------------------|
||-----6--------------------------------------------|
||-----6-----------6-6-6/8--11-8^11^8-6-8-----------|
||-8-------8---6^8------------------------6+(6)\(4)-|
||-6-------6----------------------------------------|

|---------------------------------------------------||
|---------------------------------------------------||
|-----6---------------------------------------------||
|-----6-----------6-6-6/8--11-8^11^8-6-6/(8)-----\--||
|-8-------8---6^8-----------------------------------||
|-6-------6-----------------------------------------||


"Who is to blame..."
"These words I use..."
"Mistakes were done..."
"Choosing is hard..."
||------------------------------------------------------||
||------------------------------------------------------||
||------------------------------------------------------||
||--------------------------------9-8-XXXX-------9--8-6-||
||-6-7-8-4--XXXX-4-5-6------8--6--7-6-XXXX-8--6--7--6-4-||
||---------------------4--5-6--4------XXXX-6--4---------||

REPEAT CHANGE UP

IV:  Back to the beginning

||--------------||
||--------------||
||-11-11-11-----||
||--9--9--9-----||
||-11-10--9--\--||
||--------------||

REPEAT PRE CHORUS AND CHORUS

OUTRO (play to end):

  "All hail and farewell to Britain..."
  "All hail and farewell to thee..."
||---------------------------------------------------------------||
||---------------------------------------------------------------||
||---------------------------------------------------------------||
||---------------------------------------------------------------||
||---------------------------------------------------------------||
||-4-4-4-4-4-4-4-1-1-1-1-1-1-1-1-0-0-0-0-0-0-0-0-2-2-2-2-2-2-2-2-||





Comments


Popular Type O Negative tabs & chords
My Girlfriend's Girlfriend Bass Tabs
Nettie 2 Bass Tabs
Too Late Frozen Bass Tabs
Xero Tolerance Bass Tabs
12 Black Rainbows Tabs
Be My Druidness Tabs
Christian Women Tabs
I Dont Wanna Be Me 3 Tabs
In Praise Of Bacchus Tabs
Love You To Death Tabs


Song lyrics



↑ Back to top | Tablatures and chords are parodies/interpretations of the original songs. You may use it for private study, scholarship, research or language learning purposes only
© 2014 AZChords.com Contact us | Privacy policy | DMCA | Add/correct tabs | Request tabs | Top 50 tabs