» » »

Type O Negative, Bloody Kisses Bass tabs (ver.1)

Artists:  A B C D E F G H I J K L M N O P Q R S T U V W X Y Z # 

Bloody Kisses Bass tabs (ver.1)

Type O Negative Tabs
 Rating:
4/5 (4 votes)
Bloody Kisses lessons Tabs too difficult? Try these video lessons and learn fast
1
                Bass Tab
Bloody Kisses (A Death In The Family): Type O Negative

Tuning:	D:
		A:	(All strings tuned) 
		E:	(  2 ½ steps down )
		B:

Key:   	/12\	= Slide Up/Down
		  N 	= Make Some Noise! (like pick scr*pes)
		  X 	= Block Strings
		 ~~~	= Hold Note

Intro:
D:-----------------------------------------------------------------
A:--------------------------------------------------7-5-3-5/12\3~~~
E:----------------12-10-8-10\5~~~5--3~~~3--1~~~1/12\---------------
B:-12\2/10~~~~~~~~-------------------------------------------------

(A)
D:---------------------------------------------------
A:---------------------------------------------3----
E:-5-55-5-55-555-5\-----------\1-1-xx-1-0-0-xxx--3--3
B:----------------\3-33-3-33-3\----------------------

(B)                                  (C)
D:------------------------------     D:----------------------------------	  
A:-----------------------7-5-3-5     A:-2~~~/4~~~\0~~~/12\2~~~/4~~~\0~~~N
E:-5~~~5--3~~~3--1~~~/12\-------     E:----------------------------------	
B:------------------------------     B:----------------------------------

(D)
D:----------------------- |Sometimes | D:--------
A:----------------------- |this has  | A:--------
E:----------------------- |an ending | E:--------
B:-5--4--3~~~2-3-2-1-2~~~ |like this:| B:-0-1-2-5

					(F) (Guitar Solo)
					(This bit is hard to hear )  
(E) Variant on (C)			(but I think this is right)    
D:------------------------------	D:----------------
A:-2~~~----0~~~/12\2~~~----0~~~N	A:----------------
E:------------------------------	E:----------------
B:-----2~~~------------2~~~-----	B:-2~~~/4~~~/9~~~\


Structure: Intro  (A)x4  (B)x2  (A)x4  (C)x2  (D)x4	
		  (A)x2  (Quiet Bit)   (c)x2  (E)x4  
		  (F)x4  (D)x8         (B) Fade Out 		
There you go.
 
NO HOPE = NO FEAR 
(Peter Steele)
            
Submit corrections

comments powered by Disqus
↑ Back to top | Type O Negative Bass for Bloody Kisses. Lyrics for acoustic guitar and electric guitar. 1 Tablatures and chords are parodies/interpretations of the original songs. You may use it for private study, scholarship, research or language learning purposes only