» » »

Type O Negative, Angry Inch Bass tabs (ver.1)

Artists:  A B C D E F G H I J K L M N O P Q R S T U V W X Y Z # 

Angry Inch Bass tabs (ver.1)

Type O Negative Tabs
 Rating:
4/5 (4 votes)
Angry Inch lessons Tabs too difficult? Try these video lessons and learn fast
                Type O Negative -  Angry Inch  
 
Four-string bass tuned to B (B, E, A, D)

note - ^  all pre-bends 


Intro/Chorus

D|--------------------|
A|--------------------|
E|--------------------|
B|-2-------2/5--------|

Verse

D|-------------------------------------------------------------------|
A|-------------------------------------------------------------------|
E|-9-9-9-9-9-9-9-9-9-5-5-5-5-5-5-5-5---------------------------------|
B|-----------------------------------7-7-7-7-7-7-7-7-5-5-5-5-4-4-4-4-|

Chorus 2

D|----------------------------------------------|
A|----------------------------------------------|
E|-9-------9-7-5-------5-7----------------------|
B|-------------------------7-------505050505050-|

Bridge

D|----------------------------------|
A|----------------------------------|
E|-11-------7-------9-------5-------|
B|----------------------------------|

D|-----------------------------|
A|-----------------------------|
E|--------------------^15------|
B|-^12-----^15-----15----------|

	
            
Submit corrections

comments powered by Disqus
↑ Back to top | Type O Negative Bass for Angry Inch. Lyrics for acoustic guitar and electric guitar. Tablatures and chords are parodies/interpretations of the original songs. You may use it for private study, scholarship, research or language learning purposes only