» » »

The Pretty Reckless, My Medicine Tabs (ver.3)

Artists:  A B C D E F G H I J K L M N O P Q R S T U V W X Y Z # 

My Medicine Tabs (ver.3)

The Pretty Reckless Tabs
 Rating:
4/5 (4 votes)
My Medicine lessons Tabs too difficult? Try these video lessons and learn fast
1
                
Pretty easy Song, all you need is the E Maj Barré Shape Chord

I will add the Slide Guitar later (if possible ;) )

Tuning: Eb Ab Db Gb Bb Eb

Symbols: .  (Dot)             : Mute Strings with your Palm
         \  (Backslash)       : Slide down
         \2 (Backslash/Number): Only slide down, don't hit the strings

        

    Dist. Guitar

   (0:12) INTRO Pt. 1 - Play x3

Eb||--0-----.-----3-----.----|--5-----.-----7-----.----|
Bb||--0-----.-----3-----.----|--5-----.-----7-----.----|
Gb||--1-----.-----4-----.----|--6-----.-----8-----.----|
Db||--2-----.-----5-----.----|--7-----.-----9-----.----|
Ab||--------.-----------.----|--------.-----------.----|
Eb||--------.-----------.----|--------.-----------.----|
      1  &  2  &  3  &  4  &    1  &  2  &  3  &  4  &

   (0:31) INTRO Pt. 2 - Play x1

Eb||--0-----.-----3-----3----|--5-----.-----7--7--7\\3-|
Bb||--0-----.-----3-----3----|--5-----.-----7--7--7\\3-|
Gb||--1-----.-----4-----4----|--6-----.-----8--8--8\\4-|
Db||--2-----.-----5-----5----|--7-----.-----9--9--9\\5-|
Ab||--------.----------------|--------.----------------|
Eb||--------.----------------|--------.----------------|
      1  &  2  &  3  &  4  &    1  &  2  &  3  &  4  &

   (0:38) VERSE/PRE-CHORUS 1 - Play x1

Eb||--0-----.-----3-----.----|--5-----.-----7-----.----|
Bb||--0-----.-----3-----.----|--5-----.-----7-----.----|
Gb||--1-----.-----4-----.----|--6-----.-----8-----.----|
Db||--2-----.-----5-----.----|--7-----.-----9-----.----|
Ab||--------.-----------.----|--------.-----------.----|
Eb||--------.-----------.----|--------.-----------.----|
      1  &  2  &  3  &  4  &    1  &  2  &  3  &  4  &

Eb||--8-----.-----10----.----|--5-----.-----7--7--7\S--|
Bb||--8-----.-----10----.----|--5-----.-----7--7--7\L--|
Gb||--9-----.-----11----.----|--6-----.-----8--8--8\O--|
Db||--10----.-----12----.----|--7-----.-----9--9--9\W--|
Ab||--------.-----------.----|--------.----------------|
Eb||--------.-----------.----|--------.----------------|
      1  &  2  &  3  &  4  &    1  &  2  &  3  &  4  &

   (0:51) CHORUS 1 Pt. 1 - Play x2

Eb||--------.-----------.----|--------.-----------.----|
Bb||--------.-----------.----|--------.-----------.----|
Gb||--1-----.-----4-----.----|--6-----.-----8-----.----|
Db||--2-----.-----5-----.----|--7-----.-----9-----.----|
Ab||--2-----.-----5-----.----|--7-----.-----9-----.----|
Eb||--0-----.-----3-----.----|--5-----.-----7-----.----|
      1  &  2  &  3  &  4  &    1  &  2  &  3  &  4  &

   (1:03) CHORUS 1 Pt. 2 - Play x1  

Eb||-------------------------|-------------------------|
Bb||-------------------------|-------------------------|
Gb||--1-----1-----4-----4----|--6-----6-----8-----8----|
Db||--2-----2-----5-----5----|--7-----7-----9-----9----|
Ab||--2-----2-----5-----5----|--7-----7-----9-----9----|
Eb||--0-----0-----3-----3----|--5-----5-----7-----7----|
      1  &  2  &  3  &  4  &    1  &  2  &  3  &  4  &

Eb||-------------------------|-------------------------|
Bb||-------------------------|-------------------------|
Gb||--9-----9-----11----11---|--6--6--6-----8..8..8\---|
Db||--10----10----12----12---|--7--7--7-----9..9..9\---|
Ab||--10----10----12----12---|--7--7--7-----9..9..9\---|
Eb||--8-----8-----10----10---|--5--5--5-----7..7..7\---|
      1  &  2  &  3  &  4  &    1  &  2  &  3  &  4  &

   (1:16) VERSE/PRE-CHORUS 2 - Play x1

Eb||--0-----.-----3-----.----|--5-----.-----7-----.----|
Bb||--0-----.-----3-----.----|--5-----.-----7-----.----|
Gb||--1-----.-----4-----.----|--6-----.-----8-----.----|
Db||--2-----.-----5-----.----|--7-----.-----9-----.----|
Ab||--2-----.-----5-----.----|--7-----.-----9-----.----|
Eb||--------.-----------.----|--------.-----------.----|
      1  &  2  &  3  &  4  &    1  &  2  &  3  &  4  &

Eb||--8-----.-----10----.----|--5--5--5-----7--7--7--.-|
Bb||--8-----.-----10----.----|--5--5--5-----7--7--7--.-|
Gb||--9-----.-----11----.----|--6--6--6-----8--8--8--.-|
Db||--10----.-----12----.----|--7--7--7-----9--9--9--.-|
Ab||--10----.-----12----.----|--7--7--7-----9--9--9--.-|
Eb||--------.-----------.----|-----------------------.-|
      1  &  2  &  3  &  4  &    1  &  2  &  3  &  4  &

   (1:29) CHORUS 2 Pt. 1 - Play x2  

Eb||--------.-----------.----|--------.-----------.----|
Bb||--------.-----------.----|--------.-----------.----|
Gb||--1-----.-----4-----.----|--6-----.-----8-----.----|
Db||--2-----.-----5-----.----|--7-----.-----9-----.----|
Ab||--2-----.-----5-----.----|--7-----.-----9-----.----|
Eb||--0-----.-----3-----.----|--5-----.-----7-----.----|
      1  &  2  &  3  &  4  &    1  &  2  &  3  &  4  &

   (1:42) CHORUS 2 Pt. 2 - Play x1  

Eb||-------------------------|-------------------------|
Bb||-------------------------|-------------------------|
Gb||--1-----1-----4-----4----|--6-----6-----8-----8----|
Db||--2-----2-----5-----5----|--7-----7-----9-----9----|
Ab||--2-----2-----5-----5----|--7-----7-----9-----9----|
Eb||--0-----0-----3-----3----|--5-----5-----7-----7----|
      1  &  2  &  3  &  4  &    1  &  2  &  3  &  4  &

Eb||-------------------------|-------------------------|
Bb||-------------------------|-------------------------|
Gb||--9-----9-----11----11---|--6-----6-----8..8..8----|
Db||--10----10----12----12---|--7-----7-----9..9..9----|
Ab||--10----10----12----12---|--7-----7-----9..9..9----|
Eb||--8-----8-----10----10---|--5-----5-----7..7..7----|
      1  &  2  &  3  &  4  &    1  &  2  &  3  &  4  &

   (1:54) BRIDGE - Play x1

Eb||-------------------------|-------------------------|
Bb||-------------------------|-------------------------|
Gb||--6..6..6..6..6..6..6..6-|--1..1..1..1..1..1..1..1.|
Db||--7..7..7..7..7..7..7..7-|--2..2..2..2..2..2..2..2.|
Ab||--7..7..7..7..7..7..7..7-|--2..2..2..2..2..2..2..2.|
Eb||--5..5..5..5..5..5..5..5-|--0..0..0..0..0..0..0..0.|
      1  &  2  &  3  &  4  &    1  &  2  &  3  &  4  &

Eb||-------------------------|-------------------------|
Bb||-------------------------|-------------------------|
Gb||--3-----3-----3-----3----|--8-----6\---------------|
Db||--4-----4-----4-----4----|--9-----7\---------------|
Ab||--4-----4-----4-----4----|--9-----7\---------------|
Eb||--2-----2-----2-----2----|--7-----5\---------------|
      1  &  2  &  3  &  4  &    1  &  2  &  3  &  4  &

   (2:07) VERSE/PRE-CHORUS 3 - Play x1

Eb||--0-----.-----3-----.----|--5-----.-----7-----.----|
Bb||--0-----.-----3-----.----|--5-----.-----7-----.----|
Gb||--1-----.-----4-----.----|--6-----.-----8-----.----|
Db||--2-----.-----5-----.----|--7-----.-----9-----.----|
Ab||--2-----.-----5-----.----|--7-----.-----9-----.----|
Eb||--------.-----------.----|--------.-----------.----|
      1  &  2  &  3  &  4  &    1  &  2  &  3  &  4  &

Eb||--8-----.-----10----.----|--5-----.-----7--7--7--.-|
Bb||--8-----.-----10----.----|--5-----.-----7--7--7--.-|
Gb||--9-----.-----11----.----|--6-----.-----8--8--8--.-|
Db||--10----.-----12----.----|--7-----.-----9--9--9--.-|
Ab||--10----.-----12----.----|--7-----.-----9--9--9--.-|
Eb||--------.-----------.----|--------.--------------.-|
      1  &  2  &  3  &  4  &    1  &  2  &  3  &  4  &

   (2:20) CHORUS 3 Pt. 1 - Play x2

Eb||--------.-----------.----|--------.-----------.----|
Bb||--------.-----------.----|--------.-----------.----|
Gb||--1-----.-----4-----.----|--6-----.-----8-----.----|
Db||--2-----.-----5-----.----|--7-----.-----9-----.----|
Ab||--2-----.-----5-----.----|--7-----.-----9-----.----|
Eb||--0-----.-----3-----.----|--5-----.-----7-----.----|
      1  &  2  &  3  &  4  &    1  &  2  &  3  &  4  &

   (2:33) CHORUS 3 Pt. 2 - Play x1

Eb||-------------------------|-------------------------|
Bb||-------------------------|-------------------------|
Gb||--1-----1-----4-----4----|--6-----6-----8-----8----|
Db||--2-----2-----5-----5----|--7-----7-----9-----9----|
Ab||--2-----2-----5-----5----|--7-----7-----9-----9----|
Eb||--0-----0-----3-----3----|--5-----5-----7-----7----|
      1  &  2  &  3  &  4  &    1  &  2  &  3  &  4  &

Eb||-------------------------|-------------------------|
Bb||-------------------------|-------------------------|
Gb||--9-----9-----11----11---|--6-----6-----8..8..8----|
Db||--10----10----12----12---|--7-----7-----9..9..9----|
Ab||--10----10----12----12---|--7-----7-----9..9..9----|
Eb||--8-----8-----10----10---|--5-----5-----7..7..7----|
      1  &  2  &  3  &  4  &    1  &  2  &  3  &  4  &

   (2:46) OUTRO Pt. 1 - Play x2

Eb||-------------------------|-------------------------|
Bb||-------------------------|-------------------------|
Gb||--1-----1-----4-----4----|--6-----6-----8..8..8\\6-|
Db||--2-----2-----5-----5----|--7-----7-----9..9..9\\5-|
Ab||--2-----2-----5-----5----|--7-----7-----9..9..9\\5-|
Eb||--0-----0-----3-----3----|--5-----5-----7..7..7\\3-|
      1  &  2  &  3  &  4  &    1  &  2  &  3  &  4  &

   (2:59) OUTRO Pt. 2 - Play x4

Eb||--0-----.-----------.----|--------.-----------.----|
Bb||--0-----.-----0-----.----|--2-----.-----4-----.----|
Gb||--------.-----0-----.----|--2-----.-----4-----.----|
Db||--------.-----0-----.----|--2-----.-----4-----.----|
Ab||--------.-----------.----|--------.-----------.----|
Eb||--------.-----------.----|--------.-----------.----|
      1  &  2  &  3  &  4  &    1  &  2  &  3  &  4  &
            
Submit corrections

comments powered by Disqus
↑ Back to top | The Pretty Reckless Tabs for My Medicine. Lyrics for acoustic guitar and electric guitar. 1 Tablatures and chords are parodies/interpretations of the original songs. You may use it for private study, scholarship, research or language learning purposes only