» » »

The Pretty Reckless, Miss Nothing Tabs (ver.1)

Artists:  A B C D E F G H I J K L M N O P Q R S T U V W X Y Z # 

Miss Nothing Tabs (ver.1)

The Pretty Reckless Tabs
 Rating:
4.3/5 (6 votes)
Miss Nothing lessons Tabs too difficult? Try these video lessons and learn fast
1
                THE PRETTY RECKLESS
MISS NOTHING
_Tuning: Half step down_

Intro:
||----------------|------------||
||----------------|------------||
||----------------|------------||
||-24-------7--9--|--24~--7--9-||
||-24--x5---7--9--|--24~--7--9-||
||-02-------5--7--|--02~--5--7-||

Verse1:
||--------------------------------------||
||--------------------------------------||
||--------------------------------------||
||-24--24--24--5--9-----4--24--24--7--5-||
||-24--24--24--5--9-x3--4--24--24--7--5-||
||-02--02--02--7--7-----2--02--02--5--3-||

Pre Chorus1:
||------------------------------------||
||------------------------------------||
||---6----4--------11-------6---------||
||----7----5---------12------7------5-||
||------------------------------x5--5-||
||-55----33----1010-------55--------3-||

Chorus1:
||-----------------------------------||
||-----------------------------------||
||-------7------------------7--------||
||-2--4--7--7------7--2--4--7---7--2-||
||-2--4--5--7--x2--7--2--4--5---7--2-||
||-0--2-----5------5--0--2------5--0-||

Verse2:
||--------------------------------------||
||--------------------------------------||
||--------------------------------------||
||-24--24--24--5--9-----4--24--24--7--5-||
||-24--24--24--5--9-x4--4--24--24--7--5-||
||-02--02--02--7--7-----2--02--02--5--3-||

PreChorus2:
||------------------------------------||
||------------------------------------||
||---6----4--------11-------6---------||
||----7----5---------12------7------5-||
||------------------------------x5--5-||
||-55----33----1010-------55--------3-||

Chorus2 + Interlude:
||-----------------------------------||------------------||
||-----------------------------------||------------------||
||-------7------------------7--------||--------7---------||
||-2--4--7--7------7--2--4--7---7--2-||--4--2--7--7------||
||-2--4--5--7--x2--7--2--4--5---7--2-||--4--2--5--7--x2--||
||-0--2-----5------5--0--2------5--0-||--2--0-----5------||

Chorus3 + End:
||------------------------------------------||------------------||
||------------------------------------------||------------------||
||---------7~-------------------7-----------||------------------||
||-2~--4~--7~--7~------7--2--4--7------7--2-||-4--24--24--7--9--||
||-2~--4~--5~--7~--x2--7--2--4--5--x2--7--2-||-4--24--24--7--9--||
||-0~--2~------5~------5--0--2---------5--0-||-2--02--02--5--7--||
            
Submit corrections

comments powered by Disqus
↑ Back to top | The Pretty Reckless Tabs for Miss Nothing. Lyrics for acoustic guitar and electric guitar. 1 Tablatures and chords are parodies/interpretations of the original songs. You may use it for private study, scholarship, research or language learning purposes only