» » »

The Pretty Reckless, My Medicine Tabs (ver.2)

Artists:  A B C D E F G H I J K L M N O P Q R S T U V W X Y Z # 

My Medicine Tabs (ver.2)

The Pretty Reckless Tabs
 Rating:
4/5 (4 votes)
My Medicine lessons Tabs too difficult? Try these video lessons and learn fast
1
                My Medicine by The Pretty Reckless, from the 2010 album Light Me Up

Gtr I (clean) – Tune half step down (D# G# C# F# A# D#)
Gtr II (distorted/overdrive) - Tune half step down (D# G# C# F# A# D#)

Note: There is a third guitar that plays some single-note wah stuff, in the chorus 
in particular. I may add this in the future, but it can pretty much be improvised.

Intro
    Gtr I
                                                                          x3
||------------------|-----------------|-----------------|------------------|
||o--------x--------|-3------x--------|-2------x--------|-4------x--------o|
||--1------x--------|-2------x--------|-2------x--------|-4------x---------|
||--2------x--------|-0------x--------|-2------x--------|-4------x---------|
||o-2------x--------|-0------x--------|-0------x--------|-2------x--------o|
||--0------x--------|--------x--------|--------x--------|--------x---------|

  Gtr I
|-----------------|-----------------|-----------------|----------------||
|--------x--------|-3------x--------|-2------x--------|----------------||
|-1------x--------|-2------x--------|-2------x--------|----------------||
|-2------x--------|-0------x--------|-2------x--------|----------------||
|-2------x--------|-0------x--------|-0------x--------|----------------||
|-0------x--------|--------x--------|--------x--------|----------------||
|
| Gtr II
|-----------------|-----------------|-----------------|----------------||
|-----------------|-3b--------------|-----------------|-4---4---4------||
|-----------------|-----------------|-2\--------------|-4---4---4------||
|-----------------|-----------------|-2\--------------|-4---4---4------||
|-----------------|-----------------|-----------------|-2---2---2------||
|-----------------|-----------------|-----------------|----------------||
S                                                       .   .   .

Verse
   Gtr II
||-----------------|-----------------|-----------------|-----------------|
||-9---------------|-7---------------|-2---------------|-4---------------|
||-9---------------|-7---------------|-2---------------|-4---------------|
||-9---------------|-7---------------|-2---------------|-4---------------|
||-7---------------|-5---------------|-0---------------|-2---------------|
||-----------------|-----------------|-----------------|-----------------|

|-----------------|-----------------|-----------------|-----------------||
|-9---------------|-7---------------|-2---------------|-4---4---4-------||
|-9---------------|-7---------------|-2---------------|-4---4---4-------||
|-9---------------|-7---------------|-2---------------|-4---4---4-------||
|-7---------------|-5---------------|-0---------------|-2---2---2-------||
|-----------------|-----------------|-----------------|-----------------||
S                                                       .   .   .

Chorus
    Gtr II
||-----------------|-----------------|-----------------|------------------|
||o----------------|-3---------------|-2---------------|-4---------------o|
||--1--------------|-2---------------|-2---------------|-4----------------|
||--2--------------|-0---------------|-2---------------|-4----------------|
||o-2--------------|-0---------------|-0---------------|-2---------------o|
||--0--------------|-----------------|-----------------|------------------|

|-----------------|-----------------|-----------------|-----------------|
|-----------------|-3---3---3---3---|-2---2---2---2---|-4---4---4---4---|
|-1---1---1---1---|-2---2---2---2---|-2---2---2---2---|-4---4---4---4---|
|-2---2---2---2---|-0---0---0---0---|-2---2---2---2---|-4---4---4---4---|
|-2---2---2---2---|-0---0---0---0---|-0---0---0---0---|-2---2---2---2---|
|-0---0---0---0---|-----------------|-----------------|-----------------|

|-----------------|-----------------|-----------------|-----------------||
|-----------------|-3---3---3---3---|-2---2---2-------|-4---4-----------||
|-1---1---1---1---|-2---2---2---2---|-2---2---2-------|-4---4---4\------||
|-2---2---2---2---|-0---0---0---0---|-2---2---2-------|-4---4---4\------||
|-2---2---2---2---|-0---0---0---0---|-0---0---0-------|-2---2---2\------||
|-0---0---0---0---|-----------------|-----------------|-----------------||

Repeat “Verse”
Repeat “Chorus”

Bridge
  Gtr II
||-----------------|-----------------|-----------------|-----------------|
||-----------------|-----------------|-----------------|-----------------|
||-2---2---2---2---|-2---2---2---2---|-4---4---4---4---|-4---4---4---4---|
||-2---2---2---2---|-2---2---2---2---|-4---4---4---4---|-4---4---4---4---|
||-0---0---0---0---|-0---0---0---0---|-2---2---2---2---|-2---2---2---2---|
||-----------------|-----------------|-----------------|-----------------|
 S .   .   .   .     .   .   .   .     .   .   .   .     .   .   .   .

|-----------------|-----------------|-----------------|-------------------||
|-----------------|-----------------|-----------------|-------------------||
|-1---1---1---1---|-1b--------------|-7-------7-------|-(7)---------------||
|-2---2---2---2---|-2b--------------|-7-------7-------|-(7)---------------||
|-2---2---2---2---|-----------------|-5-------5-------|-(5)---------------||
|-0---0---0---0---|-----------------|-----------------|-------------------||

Repeat “Verse”
Repeat “Chorus”

Outro
   Gtr II
||------------------|-----------------|-----------------|------------------||
||o-----------------|-3---3---3---3---|-2---2---2---2---|-4---4---4-------o||
||--1---1---1---1---|-2---2---2---2---|-2---2---2---2---|-4---4---4--------||
||--2---2---2---2---|-0---0---0---0---|-2---2---2---2---|-4---4---4--------||
||o-2---2---2---2---|-0---0---0---0---|-0---0---0---0---|-2---2---2-------o||
||--0---0---0---0---|-----------------|-----------------|------------------||
 S                                                        .   .   .

Fade out
    Gtr I
||------------------|-----------------|-----------------|------------------||
||o--------x--------|-3------x--------|-2------x--------|-4------x--------o||
||--1------x--------|-2------x--------|-2------x--------|-4------x---------||
||--2------x--------|-0------x--------|-2------x--------|-4------x---------||
||o-2------x--------|-0------x--------|-0------x--------|-2------x--------o||
||--0------x--------|--------x--------|--------x--------|--------x---------||
            
Submit corrections

comments powered by Disqus
↑ Back to top | The Pretty Reckless Tabs for My Medicine. Lyrics for acoustic guitar and electric guitar. 1 Tablatures and chords are parodies/interpretations of the original songs. You may use it for private study, scholarship, research or language learning purposes only