» » »

Miss Nothing Bass tabs (ver.1)

Artists:  A B C D E F G H I J K L M N O P Q R S T U V W X Y Z # 

Miss Nothing Bass tabs (ver.1)

The Pretty Reckless
Rating:
5/5 (2 votes)

Hard to play? Try these video lessons and learn fast.
                Hi guys, this is my first ever tab, so feel free to give any criticism. 
I noticed there was no bass tab for this song on the database, 
so i took the trouble of uploading it.
i interpreted this by ear, so hop it's right. 
i have performed this live, and sounds like the original, so it'll do.

and if you would like it in a different key, 

just heighten or lower the strings evenly :)


enjoy :)


INTRO 
Gbb|------------------------|
Dbb|------------------------|
Abb|------------------------|
Ebb|-0h2---------0h2--------|

Gb|----------------------------------------------------------------|
Db|----------------------------------------------------------------|
Ab|-------------0----------------------------0---0-0-0-0-0-2-2-2-2-|
Eb|-0h2-2-2-0h2---0h2-2-2-0-2\---0h2-2-2-0h2---2-------------------| x2

VERSE 1
Gb|-----------------------------------------------------|
Db|-----------------------------------------------------|
Ab|-------------------------------------0-0-0-0-2-2-2-2-|
Eb|-0h2---------0h2---------0h2-------------------------| x2

Gb|-------------------------------------------------------------|
Db|-------------------------------------------------------------|
Ab|-------------0---------2-2-0-0---------------0-0-0-0-2-2-2-2-|
Eb|-0h2-2-2-0-2---0-2-2-2---------0h2-2-2-0-2-0-----------------| 

Gb|-------------------------------------------------------------|
Db|-------------------------------------------------------------|
Ab|-------------0---------2-2-0-0-------------------------------|
Eb|-0h2-2-2-0-2---0-2-2-2---------0h2-2-2-0-2-0-5-5-5-5-3-3-3-3-| 

PRE-CHORUS
Gb|-----------------------------------------------------------------|
Db|-----------------------------------------------------------------|
Ab|-----------------5-5-5-5-------------------------5-5-5-5---------|
Eb|-5-5-5-5-3-3-3-3---------5-5-5-5-5-5-5-5-3-3-3-3---------5-5-5-5-| x2

Gb|-----------------------------------------------------------------|
Db|-----------------------------------------------------------------|
Ab|-----------------5-5-5-5-----------------------------------------|
Eb|-5-5-5-5-3-3-3-3---------5-5-5-5-3-3-3-3-3-3-3-3-3-3-3-3-3-3-3-3-|

CHORUS
Gb|-----------------------------------------------------------------|
Db|-----------------------------------------------------------------|
Ab|---------------------------------5-5-5-5-5-5-5-5-----------------|
Eb|-0-0-0-0-0-0-0-0-2-2-2-2-2-2-2-2-----------------5-5-5-5-5-5-5-5-| x2

Gb|-----------------------------------------------------------------|
Db|-----------------------------------------------------------------|
Ab|-------------------------------------------------5-5-5-5-5-5-5-5-|
Eb|-5-5-5-5-5-5-5-5-0-0-0-0-0-0-0-0-2-2-2-2-2-2-2-2-----------------| 

Gb|---------------------------------|
Db|---------------------------------|
Ab|---------------------------------|
Eb|-5-5-5-5-5-5-5-5-0-0-0-0-0-0-0-0-| 

Gb|-------------------------------------------------------------|
Db|-------------------------------------------------------------|
Ab|-------------0---------2-2-0-0---------------0-0-0-0-2-2-2-2-|
Eb|-0h2-2-2-0-2---0-2-2-2---------0h2-2-2-0-2-0-----------------|

VERSE 2
Gb|-----------------------------------------------------|
Db|-----------------------------------------------------|
Ab|-------------------------------------0-0-0-0-2-2-2-2-|
Eb|-0h2---------0h2---------0h2-------------------------| x2

Gb|-------------------------------------------------------------|
Db|-------------------------------------------------------------|
Ab|-------------0---------2-2-0-0---------------0-0-0-0-2-2-2-2-|
Eb|-0h2-2-2-0-2---0-2-2-2---------0h2-2-2-0-2-0-----------------| 
Gb|-------------------------------------------------------------|
Db|-------------------------------------------------------------|
Ab|-------------0---------2-2-0-0-------------------------------|
Eb|-0h2-2-2-0-2-0-0-2-2-2---------0h2-2-2-0-2-0-5-5-5-5-3-3-3-3-| 

PRE-CHORUS
Gb|-----------------------------------------------------------------|
Db|-----------------------------------------------------------------|
Ab|-----------------5-5-5-5-------------------------5-5-5-5---------|
Eb|-5-5-5-5-3-3-3-3---------5-5-5-5-5-5-5-5-3-3-3-3---------5-5-5-5-| 

Gb|-----------------------------------------------------------------|
Db|-----------------------------------------------------------------|
Ab|-----------------5-5-5-5-----------------------------------------|
Eb|-5-5-5-5-3-3-3-3---------5-5-5-5-3-3-3-3-3-3-3-3-3-3-3-3-3-3-3-3-|

CHORUS
Gb|-----------------------------------------------------------------|
Db|-----------------------------------------------------------------|
Ab|---------------------------------5-5-5-5-5-5-5-5-----------------|
Eb|-0-0-0-0-0-0-0-0-2-2-2-2-2-2-2-2-----------------5-5-5-5-5-5-5-5-| x2

Gb|-----------------------------------------------------------------|
Db|-----------------------------------------------------------------|
Ab|-------------------------------------------------5-5-5-5-5-5-5-5-|
Eb|-5-5-5-5-5-5-5-5-0-0-0-0-0-0-0-0-2-2-2-2-2-2-2-2-----------------| 

Gb|---------------------------------|
Db|---------------------------------|
Ab|---------------------------------|
Eb|-5-5-5-5-5-5-5-5-0-0-0-0-0-0-0-0-| 

BRIDGE 2
Gb|-----------------------------------------------------------------|
Db|-----------------------------------------------------------------|
Ab|---------------------------------5-5-5-5-5-5-5-5-----------------|
Eb|-2-2-2-2-2-2-2-2-0-0-0-0-0-0-0-0-----------------0-0-0-0-0-0-0-0-| x2

CHORUS
Gb|-----------------------------------------------------------------|
Db|-----------------------------------------------------------------|
Ab|---------------------------------5-5-5-5-5-5-5-5-----------------|
Eb|-0-0-0-0-0-0-0-0-2-2-2-2-2-2-2-2-----------------5-5-5-5-5-5-5-5-| x2

Gb|-----------------------------------------------------------------|
Db|-----------------------------------------------------------------|
Ab|-------------------------------------------------5-5-5-5-5-5-5-5-|
Eb|-5-5-5-5-5-5-5-5-0-0-0-0-0-0-0-0-2-2-2-2-2-2-2-2-----------------| x2

Gb|---------------------------------|
Db|---------------------------------|
Ab|---------------------------------|
Eb|-5-5-5-5-5-5-5-5-0-0-0-0-0-0-0-0-| 

OUTRO
Gb|-------------------------------------------------------------|
Db|-------------------------------------------------------------|
Ab|-------------0---------2-2-0-0---------------0-0-0-0-2-2-2-2-|
Eb|-0h2-2-2-0-2---0-2-2-2---------0h2-2-2-0-2-0-----------------| 

Gb|--------------------------------|
Db|--------------------------------|
Ab|-2~~~~~~~~~~~~~~~~~~~~~~~~~~~~~-|
Eb|--------------------------------| 
            
Hard to play? Try these video lessons and learn fast. | Correct




comments powered by Disqus
↑ Back to top | Tablatures and chords are parodies/interpretations of the original songs. You may use it for private study, scholarship, research or language learning purposes only