» » »

Make Me Wanna Die Bass tabs (ver.1)

Artists:  A B C D E F G H I J K L M N O P Q R S T U V W X Y Z # 

Make Me Wanna Die Bass tabs (ver.1)

The Pretty Reckless
Rating:
3/5 (1 vote)

Hard to play? Try these video lessons and learn fast.
                MAKE ME WANNA DIE- THE PRETTY RECKLESS

this is what I tabbed after looking at the previous versions.

TUNING- DROP D


|---------------------------------------------------|
|---------------------------------------------------|
|---------------------------------------------------|
|-------333333333333333333333333333333333-6-898-----|


|--------------------------------------------------------------------------|
|--------------------------------------------------------------------------|
|--------------------------------------------------------------------------|
|-------3-333333333333333333333333333-6-9-3-333333333333333333333333333333-|


[Verse 1]
|------------------------------------------------------------------|
|------------------------------------------------------------------|
|-----------------------66-6666-55-5555-44-4444-33-3333------------|
|-6-898-33-3333-66-6666----------------------------------10-8-6-5--|


|------------------------------------------------------------|
|------------------------------------------------------------|
|-----------------66-6666-55-5555-44-4444-33-3333--33333333--|
|-33-3333-66-6666--------------------------------------------|


[Chorus]
|------------------------------------------------------------------------|
|------------------------------------------------------------------------|
|-------------------------------------------------33-3333-33-3333--------|
|-33-3333-33-3333-66-6666-66-6666-88-8888-88-8888------------------------|

|-------------------------------------------------------------------|
|-------------------------------------------------------------------|
|-44-4444-66-6666-8-8--8-8-8-8--66-6666-----------------------------|
|---------------------------------------88-8888-8-8-8-8--10-8-6-5---|

[Pre-verse]
|------------------------------------------------------------------------|
|------------------------------------------------------------------------|
|------------------------------------------------------------------------|
|-333333333333333333333333333-6-9-3-33333333333333333333333333-----------|


[Verse 2]
|------------------------------------------------------------------|
|------------------------------------------------------------------|
|-----------------------66-6666-55-5555-44-4444-33-3333--10-8-6-5--|
|-6-898-33-3333-66-6666--------------------------------------------|


|------------------------------------------------------------|
|------------------------------------------------------------|
|-----------------66-6666-55-5555-44-4444-33-3333--33333333--|
|-33-3333-66-6666--------------------------------------------|



[Chorus]
|------------------------------------------------------------------------|
|------------------------------------------------------------------------|
|-------------------------------------------------33-3333-33-3333--------|
|-33-3333-33-3333-66-6666-66-6666-88-8888-88-8888------------------------|

|-------------------------------------------------------------------|
|-------------------------------------------------------------------|
|-44-4444-66-6666-8-8--8-8-8-8--66-6666-----------------------------|
|---------------------------------------88-8888-8-8-8-8--10-8-6-5---|

[Bridge]
|-------------------------------------------|
|-------------------------------------------|
|-------------------------------------------| x4
|-3-333-333-6-666-666-1-111-111-8-888-888---|


|------------------------------------------|
|------------------------------------------|
|----------------------------333333333333--|
|-33333333-66666666-88888888---------------|

[Chorus]
|----------------------------------------------|
|----------------------------------------------|
|-44-4444-66-6666-88--8-8-8-8--66-6666---------|   x3
|----------------------------------------------|

|----------------------------|
|----------------------------|
|----------------------------|
|-88-8888-8888-10-8-6-5------|

[Outro]
|---------------------------------------------|
|---------------------------------------------|
|---------------------------------------------| (Repeat till fade out)
|-33333333333333333333333333333--6--9--3------|
            
Hard to play? Try these video lessons and learn fast. | Correct




comments powered by Disqus
↑ Back to top | Tablatures and chords are parodies/interpretations of the original songs. You may use it for private study, scholarship, research or language learning purposes only