» » »

The Pretty Reckless, Make Me Wanna Die Tabs (ver.3)

Artists:  A B C D E F G H I J K L M N O P Q R S T U V W X Y Z # 

Make Me Wanna Die Tabs (ver.3)

The Pretty Reckless Tabs
 Rating:
4.6/5 (9 votes)
Make Me Wanna Die lessons Tabs too difficult? Try these video lessons and learn fast
1
                -----------------------------------------------------------------------------
--                           Make Me Wanna Die - The Pretty Reckless
-------------------------------------------------------------------------------
this is what I came up with, feel free to add more parts if you can.

Tuning:Drop D

INTRO (0:00-0:17)

|-------------------------------------------------------------------------[
|--9----9------8-9-11---9----9--------------9-----------------------------[
|----10---9-10------------10---9-10-8-6-5-----10--------------------------[
|------------------------------------------------1~---3--6--9109----------[
|------------------------------------------------1~---3--6--9109----------[
|------------------------------------------------1~---3--6--9109----------[

PRE VERSE (0:17-0:22)

|-------------------------------------------------------------------------|
|-------------------------------------------------------------------------|
|-------------------------------------------------------------------------|
|-333333333333333333333333--6--9109---------------------------------------|
|-333333333333333333333333--6--9109---------------------------------------|
|-333333333333333333333333--6--9109---------------------------------------|
  ........................

VERSE (0:22-0:42)

|-------------------------------------------------------------------------|
|-------------------------------------------------------------------------|
|-------------------------------------------------------------------------|
|-3-3---6-6---1-1---0-0---11-11---10-10---10---8---6---5------------------|
|-3-3---6-6---1-1---0-0---11-11---10-10---10---8---6---5------------------|
|-3-3---6-6---1-1---0-0---11-11---10-10---10---8---6---5------------------|

|-------------------------------------------------------------------------|
|-------------------------------------------------------------------------|
|-------------------------------------------------------------------------|
|-3-3---6-6---1-1---0-0---11-11---10-10---1010101010101010----------------|
|-3-3---6-6---1-1---0-0---11-11---10-10---1010101010101010----------------|
|-3-3---6-6---1-1---0-0---11-11---10-10---1010101010101010----------------|

PRE CHORUS (0:42-0:50)

|-------------------------------------------------------------------------|
|--9----9------8-9-11---9----9--------------9-----------------------------|
|----10---9-10------------10---9-10-8-6-5-----10~-------------------------|
|-------------------------------------------------------------------------|
|-------------------------------------------------------------------------|
|-------------------------------------------------------------------------|


CHORUS (0:51-1:10)

|-------------------------------------------------------------------------------------|
|-------------------------------------------------------------------------------------|
|-------------------------------------------------------------------------------------|
|-3333333333333333-6666666666666666-8888888888888888-10101010101010101010101010101010-|
|-3333333333333333-6666666666666666-8888888888888888-10101010101010101010101010101010-|
|-3333333333333333-6666666666666666-8888888888888888-10101010101010101010101010101010-|

|-----------------------------------------------------------------------------------------------|
|-----------------------------------------------------------------------------------------------|
|-----------------------------------------------------------------------------------------------|
|-1111111111111111-1313131313131313-1515151515151515-1313131313131313-8888888888888888-10-8-6-5-|
|-1111111111111111-1313131313131313-1515151515151515-1313131313131313-8888888888888888-10-8-6-5-|
|-1111111111111111-1313131313131313-1515151515151515-1313131313131313-8888888888888888-10-8-6-5-|

PRE VERSE (1:11-1:16)

|-------------------------------------------------------------------------|
|-------------------------------------------------------------------------|
|-------------------------------------------------------------------------|
|-333333333333333333333333--6--9109---------------------------------------|
|-333333333333333333333333--6--9109---------------------------------------|
|-333333333333333333333333--6--9109---------------------------------------|
  ........................

VERSE (1:11-1:37)

|-------------------------------------------------------------------------|
|-------------------------------------------------------------------------|
|-------------------------------------------------------------------------|
|-3-3---6-6---1-1---0-0---11-11---10-10---10---8---6---5------------------|
|-3-3---6-6---1-1---0-0---11-11---10-10---10---8---6---5------------------|
|-3-3---6-6---1-1---0-0---11-11---10-10---10---8---6---5------------------|

|-------------------------------------------------------------------------|
|-------------------------------------------------------------------------|
|-------------------------------------------------------------------------|
|-3-3---6-6---1-1---0-0---11-11---10-10---1010101010101010----------------|
|-3-3---6-6---1-1---0-0---11-11---10-10---1010101010101010----------------|
|-3-3---6-6---1-1---0-0---11-11---10-10---1010101010101010----------------|

PRE CHORUS (1:27-1:51)

|-------------------------------------------------------------------------|
|--9----9------8-9-11---9----9--------------9-----------------------------|
|----10---9-10------------10---9-10-8-6-5-----10--------------------------|
|------------------------------------------------3~-----------------------|
|------------------------------------------------3~-----------------------|
|------------------------------------------------3~-----------------------|


CHORUS (1:51-2:10)

|-------------------------------------------------------------------------------------|
|-------------------------------------------------------------------------------------|
|-------------------------------------------------------------------------------------|
|-3333333333333333-6666666666666666-8888888888888888-10101010101010101010101010101010-|
|-3333333333333333-6666666666666666-8888888888888888-10101010101010101010101010101010-|
|-3333333333333333-6666666666666666-8888888888888888-10101010101010101010101010101010-|

|-----------------------------------------------------------------------------------------------|
|-----------------------------------------------------------------------------------------------|
|-----------------------------------------------------------------------------------------------|
|-1111111111111111-1313131313131313-1515151515151515-1313131313131313-8888888888888888-10-8-6-5-|
|-1111111111111111-1313131313131313-1515151515151515-1313131313131313-8888888888888888-10-8-6-5-|
|-1111111111111111-1313131313131313-1515151515151515-1313131313131313-8888888888888888-10-8-6-5-|

BRIDGE (2:10-3:18)

|-------------------------------------------------------------------------|
|-------------------------------------------------------------------------|
|-------------------------------------------------------------------------|
|-333-333--666-666--111-111--101010-101010--------------------------------|
|-333-333--666-666--111-111--101010-101010---X4---------------------------|
|-333-333--666-666--111-111--101010-101010--------------------------------|
    .  .     .  .     .  .        .    .   
|-------------------------------------------------------------------------|
|-------------------------------------------------------------------------|
|-------------------------------------------------------------------------|
|-1111111111111111-1313131313131313-1515151515151515-1313131313131313-----|
|-1111111111111111-1313131313131313-1515151515151515-1313131313131313-X3--|
|-1111111111111111-1313131313131313-1515151515151515-1313131313131313-----|

|-------------------------------------------------------------------------|
|-------------------------------------------------------------------------|
|-------------------------------------------------------------------------|
|888888888-10-8-6-5-------------------------------------------------------|
|888888888-10-8-6-5-------------------------------------------------------|
|888888888-10-8-6-5-------------------------------------------------------|

OUTRO (3:20-)

|-------------------------------------------------------------------------|
|-------------------------------------------------------------------------|
|-------------------------------------------------------------------------|
|-333333333333333333333333--6--9109---------------------------------------|
|-333333333333333333333333--6--9109--X3-----------------------------------|
|-333333333333333333333333--6--9109---------------------------------------|
  ........................
            
Submit corrections

comments powered by Disqus
↑ Back to top | The Pretty Reckless Tabs for Make Me Wanna Die. Lyrics for acoustic guitar and electric guitar. 1 Tablatures and chords are parodies/interpretations of the original songs. You may use it for private study, scholarship, research or language learning purposes only