» » »

The Pretty Reckless, Make Me Wanna Die Tabs (ver.1)

Artists:  A B C D E F G H I J K L M N O P Q R S T U V W X Y Z # 

Make Me Wanna Die Tabs (ver.1)

The Pretty Reckless Tabs
Rating:
3/5 (6 votes)
Make Me Wanna Die lessons Tabs too difficult? Try these video lessons and learn fast
                -------------------------------------------------------------------------------
-------------------------------------------------------------------------------

Tuning: Drop-D

[Intro/Pre-verse]
e|---------------------------------------------------|
B|---------------------------------------------------|
G|---------------------------------------------------|
D|-1~---3~--6-9-3-333333333333333333333333333333333--|
A|-1~---3~--6-9-3-333333333333333333333333333333333--|
D|-1~---3~--6-9-3-333333333333333333333333333333333--|
                  .................................

e|--------------------------------------------------------------------------|
B|--------------------------------------------------------------------------|
G|--------------------------------------------------------------------------|
D|-6-898-3-333333333333333333333333333-6-9-3-333333333333333333333333333333-|
A|-6-898-3-333333333333333333333333333-6-9-3-333333333333333333333333333333-|
D|-6-898-3-333333333333333333333333333-6-9-3-333333333333333333333333333333-|
           ...........................       ..............................

[Verse 1]
e|------------------------------------------------------------------|
B|------------------------------------------------------------------|
G|-----------------------88-8888-77-7777-66-6666-55-5555------------|
D|-6-898-33-3333-66-6666-88-8888-77-7777-66-6666-55-5555--10-8-6-5--|
A|-6-898-33-3333-66-6666-66-6666-55-5555-44-4444-33-3333--10-8-6-5--|
D|-6-898-33-3333-66-6666----------------------------------10-8-6-5--|
         .. .... .. .... .. .... .. .... .. .... .. ....

e|------------------------------------------------------------|
B|------------------------------------------------------------|
G|-----------------88-8888-77-7777-66-6666-55-5555--55555555--|
D|-33-3333-66-6666-88-8888-77-7777-66-6666-55-5555--55555555--|
A|-33-3333-66-6666-66-6666-55-5555-44-4444-33-3333--33333333--|
D|-33-3333-66-6666--------------------------------------------|
   .. .... .. .... .. .... .. .... .. .... .. ....

[Chorus]
e|------------------------------------------------------------------------|
B|------------------------------------------------------------------------|
G|-------------------------------------------------55-5555-55-5555--------|
D|-33-3333-33-3333-66-6666-66-6666-88-8888-88-8888-55-5555-55-5555--------|
A|-33-3333-33-3333-66-6666-66-6666-88-8888-88-8888-33-3333-33-3333--------|
D|-33-3333-33-3333-66-6666-66-6666-88-8888-88-8888------------------------|

e|-------------------------------------------------------------------|
B|-------------------------------------------------------------------|
G|-66-6666-88-8888-1010-10101010-88-8888-----------------------------|
D|-66-6666-88-8888-1010-10101010-88-8888-88-8888-8-8-8-8--10-8-6-5---|
A|-44-4444-66-6666-8-8--8-8-8-8--66-6666-88-8888-8-8-8-8--10-8-6-5---|
D|---------------------------------------88-8888-8-8-8-8--10-8-6-5---|

[Pre-verse]
e|------------------------------------------------------------------------|
B|------------------------------------------------------------------------|
G|------------------------------------------------------------------------|
D|-333333333333333333333333333-6-9-3-33333333333333333333333333-----------|
A|-333333333333333333333333333-6-9-3-33333333333333333333333333-----------|
D|-333333333333333333333333333-6-9-3-33333333333333333333333333-----------|
   ...........................       ..........................

[Verse 2]
e|------------------------------------------------------------------|
B|------------------------------------------------------------------|
G|-----------------------88-8888-77-7777-66-6666-55-5555------------|
D|-6-898-33-3333-66-6666-88-8888-77-7777-66-6666-55-5555--10-8-6-5--|
A|-6-898-33-3333-66-6666-66-6666-55-5555-44-4444-33-3333--10-8-6-5--|
D|-6-898-33-3333-66-6666----------------------------------10-8-6-5--|
         .. .... .. .... .. .... .. .... .. .... .. ....

e|------------------------------------------------------------|
B|------------------------------------------------------------|
G|-----------------88-8888-77-7777-66-6666-55-5555--55555555--|
D|-33-3333-66-6666-88-8888-77-7777-66-6666-55-5555--55555555--|
A|-33-3333-66-6666-66-6666-55-5555-44-4444-33-3333--33333333--|
D|-33-3333-66-6666--------------------------------------------|
   .. .... .. .... .. .... .. .... .. .... .. ....

[Chorus]
e|------------------------------------------------------------------------|
B|------------------------------------------------------------------------|
G|-------------------------------------------------55-5555-55-5555--------|
D|-33-3333-33-3333-66-6666-66-6666-88-8888-88-8888-55-5555-55-5555--------|
A|-33-3333-33-3333-66-6666-66-6666-88-8888-88-8888-33-3333-33-3333--------|
D|-33-3333-33-3333-66-6666-66-6666-88-8888-88-8888------------------------|

e|-------------------------------------------------------------------|
B|-------------------------------------------------------------------|
G|-66-6666-88-8888-1010-10101010-88-8888-----------------------------|
D|-66-6666-88-8888-1010-10101010-88-8888-88-8888-8-8-8-8--10-8-6-5---|
A|-44-4444-66-6666-8-8--8-8-8-8--66-6666-88-8888-8-8-8-8--10-8-6-5---|
D|---------------------------------------88-8888-8-8-8-8--10-8-6-5---|

[Bridge]
e|-------------------------------------------|
B|-------------------------------------------|
G|-------------------------------------------| x4
D|-3-33-333-6-66-666-1-11-111-8-88-888-------|
A|-3-33-333-6-66-666-1-11-111-8-88-888-------|
D|-3-33-333-6-66-666-1-11-111-8-88-888-------|

e|------------------------------------------|
B|------------------------------------------|
G|----------------------------555555555555--|
D|-33333333-66666666-88888888-555555555555--|
A|-33333333-66666666-88888888-333333333333--|
D|-33333333-66666666-88888888---------------|
   ........ ........ ........

[Chorus]
e|------------------------------------------|
B|------------------------------------------|
G|-66-6666-88-8888-1010-10101010-88-8888----| x3
D|-66-6666-88-8888-1010-10101010-88-8888----|
A|-44-4444-66-6666-8-8--8-8-8-8--66-6666----|
D|------------------------------------------|

e|----------------------------|
B|----------------------------|
G|----------------------------|
D|-88-8888-8888-10-8-6-5------|
A|-88-8888-8888-10-8-6-5------|
D|-88-8888-8888-10-8-6-5------|

[Outro]
e|---------------------------------------------|
B|---------------------------------------------|
G|---------------------------------------------| (Repeat till fade out)
D|-33333333333333333333333333333--6--9--3------|
A|-33333333333333333333333333333--6--9--3------|
D|-33333333333333333333333333333--6--9--3------|
   .............................
            

comments powered by Disqus
↑ Back to top | The Pretty Reckless Tabs for Make Me Wanna Die. Lyrics for acoustic guitar and electric guitar. Tablatures and chords are parodies/interpretations of the original songs. You may use it for private study, scholarship, research or language learning purposes only