» » »

We Wish You A Merry Christmas Bass tabs (ver.3)

Artists:  A B C D E F G H I J K L M N O P Q R S T U V W X Y Z # 

We Wish You A Merry Christmas Bass tabs (ver.3)

Theme Songs
Rating:
0/5 (0 votes)

Hard to play? Try these video lessons and learn fast.
                We Wish You A Merry Christmas
4-string Bass
Standard Tuning (EADG)

G|------------------|----------------------|------------------------|
D|---8-8-10-8-6-5---|----10-10-12-10-8-7---|----12-12-13-12-10-8----|
A|-8--------------6-|-10-----------------8-|-12------------------10-|
E|------------------|----------------------|------------------------|

G|------------------|----------------------|-------------------|
D|-----8-7-8--------|---8-8-8-7--7-8-7-5---|-8-10-8\7\5/7-12---|
A|-6-8--------------|-8------------------8-|-----------------8-|
E|------------------|----------------------|-------------------|

G|------------|
D|-----8-7-8~-|
A|-6-8--------|
E|------------|

I'm not sure if this is right, oh well, it sounds ok.
            
Hard to play? Try these video lessons and learn fast. | Correct




comments powered by Disqus
↑ Back to top | Tablatures and chords are parodies/interpretations of the original songs. You may use it for private study, scholarship, research or language learning purposes only