» » »

Mortal Kombat Tabs (ver.1)

Artists:  A B C D E F G H I J K L M N O P Q R S T U V W X Y Z # 

Mortal Kombat Tabs (ver.1)

Theme Songs
Rating:
0/5 (0 votes)

Hard to play? Try these video lessons and learn fast.
                
-------12----13----12-10----------------------------------
-10-10----10----10----------------------------------------
----------------------------------------------------------
----------------------------------------------------------
----------------------------------------------------------
----------------------------------------------------------

-------12----13----12-10----------------------------------
-13-13----13----13----------------------------------------
----------------------------------------------------------
----------------------------------------------------------
----------------------------------------------------------
----------------------------------------------------------

-------------10----12-10----------------------------------
-------13-------------------------------------------------
-12-12----12----12----------------------------------------
----------------------------------------------------------
----------------------------------------------------------
----------------------------------------------------------

----------------------------------------------------------
-------12----13----12-10----------------------------------
-10-10----10----10----------------------------------------
----------------------------------------------------------
----------------------------------------------------------
----------------------------------------------------------
            
Hard to play? Try these video lessons and learn fast. | Correct




comments powered by Disqus
↑ Back to top | Tablatures and chords are parodies/interpretations of the original songs. You may use it for private study, scholarship, research or language learning purposes only