» » »

We Wish You A Merry Christmas Bass tabs (ver.2)

Artists:  A B C D E F G H I J K L M N O P Q R S T U V W X Y Z # 

We Wish You A Merry Christmas Bass tabs (ver.2)

Theme Songs
Rating:
0/5 (0 votes)

Hard to play? Try these video lessons and learn fast.
                
i re-tabbed this, b/c the other one
was in the wrong key.

g-----------------------------------------------
d-----------------------------------------------
a--2--2*4--2*1-------4-4*6-4*3-------6-6*8-6*4--
e-2------------4-4-4-----------6-2-2------------

g-------------------
d-------------------
a-3----------4---2--
e---4-2*2--2---6----
      and a happy new year.
            
Hard to play? Try these video lessons and learn fast. | Correct




comments powered by Disqus
↑ Back to top | Tablatures and chords are parodies/interpretations of the original songs. You may use it for private study, scholarship, research or language learning purposes only