» » »

Theme Songs, We Wish You A Merry Christmas Bass tabs (ver.1)

Artists:  A B C D E F G H I J K L M N O P Q R S T U V W X Y Z # 

We Wish You A Merry Christmas Bass tabs (ver.1)

Theme Songs Tabs
 Rating:
4/5 (4 votes)
We Wish You A Merry Christmas lessons Tabs too difficult? Try these video lessons and learn fast
                :) We Wish You A Merry Christmas Bass Tab :)
Bassist for the Cacophobiacs.
THIS is the real one. just listen, it fits perfectly if you are in tune.


|---2-2-4-2-1-----|---4-4-6-4-------|---6-6-7-6-------|--------------------|
|-2-----------4-4-|-4---------7-6---|-----------9-7---|--------9-6-7-------|
|-----------------|---------------7-|-7-------------9-|-7-7-9--------------|
|-----------------|-----------------|-----------------|--------------------|

|------------|------------|-----------9------|-----------------------------|
|----7-7-7-6-|-6-7-6------|-9-11-9-----------|-------9-6-7~----------------|
|--7---------|-------9-7--|--------12-----9--|-7-7-9-----------------------|
|------------|------------|------------------|-----------------------------|
            
Submit corrections

comments powered by Disqus
↑ Back to top | Theme Songs Bass for We Wish You A Merry Christmas. Lyrics for acoustic guitar and electric guitar. Tablatures and chords are parodies/interpretations of the original songs. You may use it for private study, scholarship, research or language learning purposes only