» » »

Tetris Tabs (ver.1)

Artists:  A B C D E F G H I J K L M N O P Q R S T U V W X Y Z # 

Tetris Tabs (ver.1)

Theme Songs
Rating:
0/5 (0 votes)

Hard to play? Try these video lessons and learn fast.
                this 100 percent 
so p[lease rate 
tetris is cool

e--------------------------155310-0---0-----------------------------------
g-501310----1531001351---3----------1---31001351--------------------------
b--------22-----------22--------------------------22--------------------
d-----------------------------------------------------------------------
a-----------------------------------------------------------------------
e-----------------------------------------------------------------------

e--------------------------155310-0---0-----------------------------------
g-501310----1531001351---3----------1---31001351--------------------------
b--------22-----------22--------------------------22--------------------
d-----------------------------------------------------------------------
a-----------------------------------------------------------------------
e-----------------------------------------------------------------------
            
Hard to play? Try these video lessons and learn fast. | Correct




comments powered by Disqus
↑ Back to top | Tablatures and chords are parodies/interpretations of the original songs. You may use it for private study, scholarship, research or language learning purposes only