» » »

Trigger Happy Tv Bass tabs (ver.1)

Artists:  A B C D E F G H I J K L M N O P Q R S T U V W X Y Z # 

Trigger Happy Tv Bass tabs (ver.1)

Theme Songs
Rating:
0/5 (0 votes)

Hard to play? Try these video lessons and learn fast.
                
   g|----0---------------0---0-------7-5-7---7---7-0-|
   d|0-------3---2---0---------3-2-0-----------------|
   a|--0---0---0---0---0---1-------------------0-----|
   e|--------------------------------------6---------|

   g|7---7-0-7-0---7---7-5-7---7---7------------0-----0-|
   d|--3-------------0----------------------------0-----|
   a|------------0-----------1---1---10-8-5-3-0-----0---|
   e|---------------------------------------------------|

     Thats it, it's pretty fast hope it helps.
            
Hard to play? Try these video lessons and learn fast. | Correct




comments powered by Disqus
↑ Back to top | Tablatures and chords are parodies/interpretations of the original songs. You may use it for private study, scholarship, research or language learning purposes only