» » »

Theme Songs, Trigger Happy Tv Bass tabs (ver.2)

Artists:  A B C D E F G H I J K L M N O P Q R S T U V W X Y Z # 

Trigger Happy Tv Bass tabs (ver.2)

Theme Songs Tabs
Rating:
0/5 (0 votes)
Hard to play? Try these video lessons and learn fast.
                "(1)
I'm not sure about the very last bit. Please rate this, it's my first tab

G|------------------------------------7-5-7---7---7---7---7---7---7---7-5-7--| 
D|----7-5-7---7---7---7-5-7-8-5-------------8---7---5-------5---7------------| 
A|--5-------8---7---5-----------8-7-5-------------------8-----------5--------| 
E|---------------------------------------------------------------------------| 

G|----7---7-10-9-7---2-------------------------------------------------------| 
D|--8---7--------------5-----------------------------------------------------| 
A|-----------------3---------------------------------------------------------| 
E|---------------------------------------------------------------------------| 
          ?<------------>?
             ?not sure?
"            

comments powered by Disqus
↑ Back to top | Theme Songs Bass for Trigger Happy Tv. Lyrics for acoustic guitar and electric guitar. Tablatures and chords are parodies/interpretations of the original songs. You may use it for private study, scholarship, research or language learning purposes only