» » »

Theme Songs, Trigger Happy Tv Tabs (ver.1)

Artists:  A B C D E F G H I J K L M N O P Q R S T U V W X Y Z # 

Trigger Happy Tv Tabs (ver.1)

Theme Songs Tabs
 Rating:
4/5 (4 votes)
Trigger Happy Tv lessons Tabs too difficult? Try these video lessons and learn fast
1
                e|------------------------------------------------------------------------------
B|------------------------------------------------------------------------------
G|-----------4-6-8-8---------4-6-8-8--------------------------------------------
D|--6-6--4-4-4-6-8-8-6-6-4-4-4-6-8-8--------------------------------------------
A|--6-6--4-4-2-4-6-6-6-6-4-4-2-4-6-6--------------------------------------------
E|--4-4--2-2---------4-4-2-2----------------------------------------------------
                                                                              

e|------------------------------------------------------------------------------
B|------------------------------------------------------------------------------
G|-------------4-4-6-8-8-8---------------6-5-4-4-4------------------------------
D|-6-6-6-4-4-4-4-4-6-8-8-8--6-6-6-4-4-4--6-5-4-4-4-6----------------------------
A|-6-6-6-4-4-4-2-2-4-6-6-6--6-6-6-4-4-4--4-3-2-2-2-6----------------------------
E|-4-4-4-2-2-2--------------4-4-4-2-2-2------------4----------------------------
            
Submit corrections

comments powered by Disqus
↑ Back to top | Theme Songs Tabs for Trigger Happy Tv. Lyrics for acoustic guitar and electric guitar. 1 Tablatures and chords are parodies/interpretations of the original songs. You may use it for private study, scholarship, research or language learning purposes only