>
 >
James Bond Theme 2

James Bond Theme 2 Guitar Tabs

Theme Songs - James Bond Theme 2 chords, tabs, tablatures, lyrics

Guitar lessons | Add/correct | Request | Top 50 tabs Artists:  A B C D E F G H I J K L M N O P Q R S T U V W X Y Z 0-9

James Bond Theme 2 Guitar Tabs – Theme Songs

CD, Sheet music, Poster

Do you like James Bond Theme 2? Share with your friends now
TabsTabs v2Tabs v3

e|--------------------------|--------------------------|-
B|--------------------------|--------------------------|-
G|--------------------------|--------------------------|-
D|--------------------------|--------------------------|-
A|--------------------------|--------------------------|-
E|--0--2-2-2--2~---0--0--0--|--0--3-3-3--3~---2--2--2--|-


                                                      
--------------------------|--------------------------|-
--------------------------|--------------------------|-
--------------------------|--------------------------|-
--------------------------|--------------------------|-
--------------------------|--------------------------|-
--0--2-2-2--2~---0--0--0--|--0--3-3-3--3~---2--2--2--|-


                                                      
--------------------------|--------------------------|-
--------------------------|--------------------------|-
--------------------------|--------------------------|-
--------------------------|--------------------------|-
--------------------------|--------------------------|-
--0--2-2-2--2~---0--0--0--|--0--3-3-3--3~---2--1--0--|-


                                                                      
----------------------|-------------------|-
----------------------|-------------------|-
----------------------|-------------------|-
--1--0~---------------|-------------------|-
----------------2--0--|--2~---------------|-
----------------------|-------------------|-



It goes on with this riff:

e|-----------------------|---------------------|-------------------------|-
B|-----------------------|---------------------|-------------------------|-
G|----------8--7~--------|---------------------|-------------------------|-
D|-----5-----------------|--5--7~-----------5--|----7-5-4~------0--2-----|-
A|--7-----------------7--|---------------------|----------------------4~-|-
E|-----------------------|---------------------|-------------------------|-


                                                                 
-----------------------|---------------------|-
-----------------------|---------------------|-
----------8--7~--------|---------------------|-
-----5-----------------|--5--7~-----------5--|-
--7-----------------7--|---------------------|-
-----------------------|---------------------|-


                                                                       
-------------------------|----------11--10~--------|-
-------------------------|-----8-------------------|-
-------------------------|--9-------------------9--|-
----7-5-4~---------------|-------------------------|-
----------------5--6--7~-|-------------------------|-
-------------------------|-------------------------|-


                                                                     
----------------------|--------------------------|-
--8--10~-----------8--|----10-8-7~---------5-----|-
----------------------|-----------------7-----6~-|-
----------------------|--------------------------|-
----------------------|--------------------------|-
----------------------|--------------------------|-


                                                 
----------11--10~--------|----------------------|-
-----8-------------------|--8--10~-----------8--|-
--9-------------------9--|----------------------|-
-------------------------|----------------------|-
-------------------------|----------------------|-
-------------------------|----------------------|-


                                              
--------------------------|-
----10-8-7~---------------|-
--------------------8--9~-|-
-----------------7--------|-
--------------------------|-
--------------------------|-


Then:

e|--------------------------------|------------------------------------|-
B|--------------------------------|------------------------------------|-
G|--------------------------------|------------------------------------|-
D|--9----9------9--11----9--11----|--12----12------12--11----12--11----|-
A|--7----7------7--9-----7--9-----|--10----10------10--9-----10--9-----|-
E|--------------------------------|------------------------------------|-


                                                                      
--------------------------------|------------------------------------|-
--------------------------------|------------------------------------|-
--------------------------------|------------------------------------|-
--9----9------9--11----9--11----|--12----12------12--11----12--11----|-
--7----7------7--9-----7--9-----|--10----10------10--9-----10--9-----|-
--------------------------------|------------------------------------|-


                                                                      
--------------------------|----------------------------|-
--------------------------|----------------------------|-
--16---16---------16---16-|----------16-16--16-16--16--|-
--16---16---------16---16-|----------16-16--16-16--16--|-
--14---14---------14---14-|----------14-14--14-14--14--|-
--------------------------|----------------------------|-





Comments


Popular Theme Songs tabs & chords
Addams Family Bass Tabs
Beavis And Butthead Bass Tabs
Charlie Brown Theme Bass Tabs
Hockey Night In Canada Theme Bass Tabs
James Bond 007 Theme Bass Tabs
Spy Hunter Bass Tabs
Star Wars Theme 1 Bass Tabs
This Old Man Bass Tabs
Mortal Kombat Theme Tabs
Upa Upa Upapa Tabs


Song lyrics



↑ Back to top | Tablatures and chords are parodies/interpretations of the original songs. You may use it for private study, scholarship, research or language learning purposes only
© 2014 AZChords.com Contact us | Privacy policy | DMCA | Add/correct tabs | Request tabs | Top 50 tabs