» » »

007 James Bond Tabs (ver.1)

Artists:  A B C D E F G H I J K L M N O P Q R S T U V W X Y Z # 

007 James Bond Tabs (ver.1)

Theme Songs
Rating:
0/5 (0 votes)

Tabs too difficult? Try these video lessons and learn fast.
                james bond tab by george rowlands
intro
e------------
b------------
g------------
d------------
a--2--3--4--3
e--0--0--0--0

first do this two times
e----------------------------------------------
b-----------------------------------------------
g-----------------------------------------------
d-----------------------------------------------
a-----------------------------------------------
e--0--2--2--2--2-0--0--0--0--3--3--3--3--2--2--2      x2
then this on the third time

e-----------------------------------------------
b-----------------------------------------------
g-----------------------------------------------
d-----------------------------------------------
a-----------------------------------------------
e--0--2--2--2--2--0--0--0--0--3--3--3--3--2--1--0
then this

e---------------
b---------------
g---------------
d--1--0---------
a--------2--0--2
e---------------

very easy song please rat this!!
            
Tabs too difficult? Try these video lessons and learn fast.




comments powered by Disqus
↑ Back to top | Tablatures and chords are parodies/interpretations of the original songs. You may use it for private study, scholarship, research or language learning purposes only