» » »

Theme Songs, 007 James Bond Bass tabs (ver.1)

Artists:  A B C D E F G H I J K L M N O P Q R S T U V W X Y Z # 

007 James Bond Bass tabs (ver.1)

Theme Songs Tabs
Rating:
0/5 (0 votes)
007 James Bond lessons Tabs too difficult? Try these video lessons and learn fast
                "(0)
(Theme)
G----------------(x4)
D----------------
A----------------
E-0-0-2-2-3-3-2-2 (moderately slow)

G----------------------------(x1)
D----------------------------
A----------------------------
E-0-00h2-22-0-0-0-00h3-33-222(moderately fast)

G----------------------------------------(x1)
D-------------------------------1-0------
A-----------------------------------2-0-2
E-0-00h2-22-0-0-0-00h3-33-2-1-0----------(moderately fast)

G-------8-7r----------------------(x2)
D-----5------5-8-9r--8h9p8r---5--5
A-2/7-----------------------7---5-
E---------------------------------(fast)

G--------------------(x4)
D-----------5-5-5454r
A-7-7-7979r----------
E--------------------(average speed/moderately fast)

Key:
H - hammer on
P - pull off
R - Ring
/ - slide

Thats it, repeat however many times you need to and in different orders
"            

comments powered by Disqus
↑ Back to top | Theme Songs Bass for 007 James Bond. Lyrics for acoustic guitar and electric guitar. Tablatures and chords are parodies/interpretations of the original songs. You may use it for private study, scholarship, research or language learning purposes only