» » »

007 James Bond Tabs (ver.6)

Artists:  A B C D E F G H I J K L M N O P Q R S T U V W X Y Z # 

007 James Bond Tabs (ver.6)

Theme Songs
Rating:
0/5 (0 votes)

Hard to play? Try these video lessons and learn fast.
                (Theme)
e------------------------------------------------------------------------------------
b------------------------------------------------------------------------------------
g------------------------------------------------------------------------------------
d------------------------------------------------------------------------------------
a------------------------------------------------------------------------------------
E--0---2--2--2--2---0--0--0--0---3--3--3--3---2--2--2--------------------------------

repeat 4 about 3 times then on the last 1 u go
e------------------------------------------------------------------------------------
b-----------------------------4--3---------------------------------------------------
g------------------------------------------------------------------------------------
d------------------------------------------------------------------------------------
a------------------------------------2--0--2-----------------------------------------
E--0---3--3--3--3--2--1--0-----------------------------------------------------------

thats pritty much all i no thanks 4 readin my tab :)
            
Hard to play? Try these video lessons and learn fast. | Correct




comments powered by Disqus
↑ Back to top | Tablatures and chords are parodies/interpretations of the original songs. You may use it for private study, scholarship, research or language learning purposes only