» » »

Theme Songs, Darth Vader Bass tabs (ver.1)

Artists:  A B C D E F G H I J K L M N O P Q R S T U V W X Y Z # 

Darth Vader Bass tabs (ver.1)

Theme Songs Tabs
4/5 (4 votes)
Darth Vader lessons Tabs too difficult? Try these video lessons and learn fast
                Theme Songs
"Darth Vader March"
Standard Tuning

This is an easy way to play it
G ---------------------------------------
D --------------------2-2-22-3-----------
A 0-0-00---3-0---3-0-----------3------3-0 
E -------1-----1-----------------4--1----

This is a challenging way and you need to use a pick
G 9-9-99----12-9----12-9--4-4-44--5---------12-9
D 7-7-77-10-10-7-10-10-7--2-2-22--3-5----10-10-7
A -------8-------8------------------3-6- 8------
E ------------------------------------4---------
If you rate please comment!

Submit corrections

comments powered by Disqus
↑ Back to top | Theme Songs Bass for Darth Vader. Lyrics for acoustic guitar and electric guitar. Tablatures and chords are parodies/interpretations of the original songs. You may use it for private study, scholarship, research or language learning purposes only