» » »

Darth Vader Bass tabs (ver.2)

Artists:  A B C D E F G H I J K L M N O P Q R S T U V W X Y Z # 

Darth Vader Bass tabs (ver.2)

Theme Songs
Rating:
0/5 (0 votes)

Hard to play? Try these video lessons and learn fast.
                Whats up??
enjoy
rock on!!!


g-----------------------------------
d-------------------5-5-5-6---------
a-3-3-3---6-3---6-3---------6-----6-3  
e-------4-----4---------------7-4---


and the correct way of playing star wars theme song is

g-----0-------5-0--------5-0-------
d-------3-2-0------3-2-0----3-2-3-0
a-3-3------------------------------
e----------------------------------

This Star wars songs are 99% correct and were written by Lucas1

Hope it helps a lot of ya guys out there

Lucas1
            
Hard to play? Try these video lessons and learn fast. | Correct




comments powered by Disqus
↑ Back to top | Tablatures and chords are parodies/interpretations of the original songs. You may use it for private study, scholarship, research or language learning purposes only