» » »

Darth Vader Tabs (ver.1)

Artists:  A B C D E F G H I J K L M N O P Q R S T U V W X Y Z # 

Darth Vader Tabs (ver.1)

Theme Songs
Rating:
0/5 (0 votes)

Hard to play? Try these video lessons and learn fast.
                (Theme)
E]-----------------------------------------------------------------------------------
B]-----------------------------------------------------------------------------------
G]-----------------------------------------------1-------2---1-0---------------------
D]------------------------2-2-2--3-1-0--------------0-0------------5-5-5-4-5---------
A]-0-0-0---3-0----3-0---------------------3-0----------------------------------------
E]-------1------1-----------------------1--------------------------------------------

E]-----------------------------------------------------------------------------------
B]-----------------------------------------------------------------------------------
G]-----------------------------------------------------------------------------------
D]-4-3---3-3-3--4-3------------------------------------------------------------------
A]--------------------------3-0-----3-0----------------------------------------------
E]------------------------1--------1-------------------------------------------------
            
Hard to play? Try these video lessons and learn fast. | Correct




comments powered by Disqus
↑ Back to top | Tablatures and chords are parodies/interpretations of the original songs. You may use it for private study, scholarship, research or language learning purposes only