» » »

The Courteeners, Cavorting Tabs (ver.2)

Artists:  A B C D E F G H I J K L M N O P Q R S T U V W X Y Z # 

Cavorting Tabs (ver.2)

The Courteeners Tabs
 Rating:
4/5 (4 votes)
Cavorting lessons Tabs too difficult? Try these video lessons and learn fast
                
think it's pretty much 100% any suggestions welcome
enjoy!

Guitar 1


   G       Cadd9   Dsus4 Cadd9    G       Cadd9   Dsus4 Cadd9
e|-------------------------------------------------------------------------|
B|-------------------------------------------------------------------------|
G|---0-------0-------2-----0--------0-------0-------2-----0----------------|
D|-----0-------2---0---0-----2--------0-------2---0---0-----2--------------|
A|-2-----2-3-----3-------3-----3--2-----2-3-----3-------3-----3------------|
E|-------------------------------------------------------------------------|

Guitar 2
e|-------------------------------------------------------------------------|
B|-----------------------------------12----------12------------------------|
G|--------------------------------12-12--------------12--------------------|
D|--------------------------------12-12------------------12----------------|
A|-------------------------------------------------------------------------|
E|-------------------------------------------------------------------------|


Guitar 1
 G       Cadd9   Dsus4 Cadd9    G       Cadd9   Dsus4 Cadd9
e|-------------------------------------------------------------------------|
B|-------------------------------------------------------------------------|
G|---0-------0-------2-----0--------0-------0-------2-----0----------------|
D|-----0-------2---0---0-----2--------0-------2---0---0-----2--------------|
A|-2-----2-3-----3-------3-----3--2-----2-3-----3-------3-----3------------|
E|-------------------------------------------------------------------------|



Guitar 2
e|-------------------------------------------------------------------------|
B|-----------------------------------12------------------------------------|
G|--------------------------------12-12------------------------------------|
D|--------------------------------12-12------------------------------------|
A|-------------------------------------------------------------------------|
E|-------------------------------------------------------------------------|
  
Verse 1
        
  Your club is full of ....
Guitar 1
e|-7-7-7-7-7-7-8-8-7-7-7-7-7-7-5-5-7-7-7-7-7-7-7-7-8-8-8-10----------------|
B|-8-8-8-8-8-8-8-8-8-8-8-8-8-8-8-8-8-8-8-8-8-8-8-8-8-8-8-8-----------------|
G|---------------------------------------------------------------------- x2 
D|-------------------------------------------------------------------------|
A|-------------------------------------------------------------------------|
E|-------------------------------------------------------------------------|

Guitar 2
e|-10-
B|-12- Strum Palm Muted 
G|-12-
D|-12-
A|-10-
E|----


Fill

Guitar 1
e|-7-7-7-7-7-7-8-8-7-7-7-7-7-7-5-5-7-7-7-7-7-7-7-7-8-8-8-10----------------|
B|-8-8-8-8-8-8-8-8-8-8-8-8-8-8-8-8-8-8-8-8-8-8-8-8-8-8-8-8-----------------|
G|-------------------------------------------------------------------------|
D|-------------------------------------------------------------------------|
A|-------------------------------------------------------------------------|
E|---------------------------------------------------------------------- x2
Guitar 2
e|-------------------------------------------------------------------------|
B|-12---12--------12---12---------12---12----------------------------------|
G|-12------12-----12-------12-----12-------12------------------------------|
D|-12-------------12--------------12---------------------------------------|
A|-------------------------------------------------------------------------|
E|---------------------------------------------------------------------- x2
Verse 2

  And she can't stand ...
Guitar 1
e|-7-7-7-7-7-7-8-8-7-7-7-7-7-7-5-5-7-7-7-7-7-7-7-7-8-8-8-10----------------|
B|-8-8-8-8-8-8-8-8-8-8-8-8-8-8-8-8-8-8-8-8-8-8-8-8-8-8-8-8-----------------|
G|-------------------------------------------------------------------------|
D|-------------------------------------------------------------------------|
A|-------------------------------------------------------------------------|
E|-------------------------------------------------------------------------|

Guitar 2
e|-10-
B|-12- Strum Palm Muted 
G|-12-
D|-12-
A|-10-
E|----

  Her concience followed her ...  well f**k that  ...   letting her out
Guitar 1
e|-7-7-7-7-7-7-8-8-7-7-7-7-7-7-5-5-7-7-7-7-7-7-7-7------8-8-8-10-----------|
B|-8-8-8-8-8-8-8-8-8-8-8-8-8-8-8-8-8-8-8-8-8-8-8-8------8-8-8-8------------|
G|-----------------------------------------------7-------------------------|
D|-------------------------------------------------------------------------|
A|-------------------------------------------------------------------------|
E|-------------------------------------------------------------------------|

Guitar 2
e|-10-
B|-12- Strum Palm Muted 
G|-12-
D|-12-
A|-10-
E|----

Fill

Guitar 1
e|-7-7-7-7-7-7-8-8-7-7-7-7-7-7-5-5-7-7-7-7-7-7-7-7-8-8-8-10----------------|
B|-8-8-8-8-8-8-8-8-8-8-8-8-8-8-8-8-8-8-8-8-8-8-8-8-8-8-8-8-----------------|
G|-------------------------------------------------------------------------|
D|-------------------------------------------------------------------------|
A|-------------------------------------------------------------------------|
E|-------------------------------------------------------------------------|

Guitar 2
e|-------------------------------------------------------------------------|
B|-12---12--------12---12---------12---12----------------------------------|
G|-12------12-----12-------12-----12-------12------------------------------|
D|-12-------------12--------------12---------------------------------------|
A|-------------------------------------------------------------------------|
E|-------------------------------------------------------------------------|

Bridge
  And you're too ...
Guitar 1
e|----7----------8----------10----------8----------------------------------|
B|-------8----------8-----------8----------8-------------------------------|
G|-7--------7-7--------7-7---------7-7-------7--------------------------- x2
D|-------------------------------------------------------------------------|
A|-------------------------------------------------------------------------|
E|-------------------------------------------------------------------------|

  You're hooligans on E ...
Guitar 1
e|----7----------8----------10---------8-----------------------------------|
B|-------8----------8----------8----------8--------------------------------|
G|-7--------7-7--------7-7--------7-7--------7-----------------------------|
D|-------------------------------------------------------------------------|
A|-------------------------------------------------------------------------|
E|------------------------------------------------------------------------x2

Guitar 2
e|-------------------------------------------------------------------------|
B|----12---------13---------15---------13----------------------------------|
G|-------12---------12---------12---------12-------------------------------|
D|-12-------1212-------1212-------1212-------12----------------------------|
A|-------------------------------------------------------------------------|
E|------------------------------------------------------------------------x2


Fill

Guitar 1
e|-7-7-7-7-7-7-8-8-7-7-7-7-7-7-5-5-7-7-7-7-7-7-7-7-8-8-8-10----------------|
B|-8-8-8-8-8-8-8-8-8-8-8-8-8-8-8-8-8-8-8-8-8-8-8-8-8-8-8-8-----------------|
G|-------------------------------------------------------------------------|
D|-------------------------------------------------------------------------|
A|-------------------------------------------------------------------------|
E|------------------------------------------------------------------------x2

Guitar 2
e|-------------------------------------------------------------------------|
B|-12---12--------12---12---------12---12----------------------------------|
G|-12------12-----12-------12-----12-------12------------------------------|
D|-12-------------12--------------12---------------------------------------|
A|-------------------------------------------------------------------------|
E|------------------------------------------------------------------------x2


Chrous
     Cavorting, and snorting your way through the band    
Guitar 1
e|-7-----------7-7-----------7-7----------------8-8-8-10-------------------|
B|-8-----------8-8-----------8-8----------------8-8-8-8--------------------|
G|-7-----------7-7-----------7-7-------------------------------------------|
D|-------------------------------------------------------------------------|
A|-------------------------------------------------------------------------|
E|-------------------------------------------------------------------------|

Guitar 2
e|-------------------------------------------------------------------------|
B|-12---------12-12---------12-12------------------------------------------|
G|-12---------12-12---------12-12------------------------------------------|
D|-12---------12-12---------12-12------------------------------------------|
A|-------------------------------------------------------------------------|
E|-------------------------------------------------------------------------|

  Get your hand ...
Guitar 1
e|-7-7-7-7-7-7-8-8-7-7-7-7-7-7-5-5-7-7-7-7-7-7-7-7-8-8-8-10----------------|
B|-8-8-8-8-8-8-8-8-8-8-8-8-8-8-8-8-8-8-8-8-8-8-8-8-8-8-8-8-----------------|
G|-------------------------------------------------------------------------|
D|-------------------------------------------------------------------------|
A|-------------------------------------------------------------------------|
E|-------------------------------------------------------------------------|

Fill

Guitar 1
e|-7-7-7-7-7-7-8-8-7-7-7-7-7-7-5-5-7-7-7-7-7-7-7-7-8-8-8-10----------------|
B|-8-8-8-8-8-8-8-8-8-8-8-8-8-8-8-8-8-8-8-8-8-8-8-8-8-8-8-8-----------------|
G|-------------------------------------------------------------------------|
D|-------------------------------------------------------------------------|
A|-------------------------------------------------------------------------|
E|-------------------------------------------------------------------------|

Guitar 2
e|-------------------------------------------------------------------------|
B|-12---12--------12---12---------12---12----------------------------------|
G|-12------12-----12-------12-----12-------12------------------------------|
D|-12-------------12--------------12---------------------------------------|
A|-------------------------------------------------------------------------|
E|-------------------------------------------------------------------------|

Bridge
  And you're too ...
Guitar 1
e|----7----------8----------10----------8----------------------------------|
B|-------8----------8-----------8----------8-------------------------------|
G|-7--------7-7--------7-7---------7-7-------7--------------------------- x2
D|-------------------------------------------------------------------------|
A|-------------------------------------------------------------------------|
E|-------------------------------------------------------------------------|

  You're hooligans on E ...
Guitar 1
e|----7----------8----------10---------8-----------------------------------|
B|-------8----------8----------8----------8--------------------------------|
G|-7--------7-7--------7-7--------7-7--------7-----------------------------|
D|-------------------------------------------------------------------------|
A|-------------------------------------------------------------------------|
E|----------------------------------------------------------------------- x2

Guitar 2
e|-------------------------------------------------------------------------|
B|----12---------13---------15---------13----------------------------------|
G|-------12---------12---------12---------12-------------------------------|
D|-12-------1212-------1212-------1212-------12----------------------------|
A|-------------------------------------------------------------------------|
E|------------------------------------------------------------------------x2

Fill

Guitar 1
e|-7-7-7-7-7-7-8-8-7-7-7-7-7-7-5-5-7-7-7-7-7-7-7-7-8-8-8-10----------------|
B|-8-8-8-8-8-8-8-8-8-8-8-8-8-8-8-8-8-8-8-8-8-8-8-8-8-8-8-8-----------------|
G|-------------------------------------------------------------------------|
D|-------------------------------------------------------------------------|
A|-------------------------------------------------------------------------|
E|------------------------------------------------------------------------x2

Guitar 12
e|-15--------------15--------------15--------------------------------------|
B|---17-15-----------17-15-----------17-15---------------------------------|
G|--------16br-14---------16br-14---------16br-14--------------------------|
D|---------------17--------------17--------------17------------------------|
A|-------------------------------------------------------------------------|
E|------------------------------------------------------------------------x2

Verse 3

 Your club is full of ....    dehydrated goggle ...
Guitar 1
e|-7------------------------------------7----------------------------------|
B|-8------------------------------------8----------------------------------|
G|-7------------------------------------7----------------------------------|
D|-------------------------------------------------------------------------|
A|-------------------------------------------------------------------------|
E|-------------------------------------------------------------------------|

Guitar 2
e|-------------------------------------------------------------------------|
B|-12----------------------------------12----------------------------------|
G|-12----------------------------------12----------------------------------|
D|-12----------------------------------12----------------------------------|
A|-------------------------------------------------------------------------|
E|-------------------------------------------------------------------------|

 And their trying to stare ...

Guitar 1
e|-7-
B|-8-
G|-7- strum palm muted
D|---
A|---
E|---

Guitar 2
e|---
B|-12
G|-12 strum palm muted
D|-12
A|---
E|---


Fill

Guitar 1
e|-7-7-7-7-7-7-8-8-7-7-7-7-7-7-5-5-7-7-7-7-7-7-7-7-8-8-8-10----------------|
B|-8-8-8-8-8-8-8-8-8-8-8-8-8-8-8-8-8-8-8-8-8-8-8-8-8-8-8-8-----------------|
G|-------------------------------------------------------------------------|
D|-------------------------------------------------------------------------|
A|-------------------------------------------------------------------------|
E|-------------------------------------------------------------------------|

Guitar 2
e|-------------------------------------------------------------------------|
B|-12---12--------12---12---------12---12----------------------------------|
G|-12------12-----12-------12-----12-------12------------------------------|
D|-12-------------12--------------12---------------------------------------|
A|-------------------------------------------------------------------------|
E|-------------------------------------------------------------------------|

Bridge
  And you're too ...
Guitar 1
e|----7----------8----------10----------8----------------------------------|
B|-------8----------8-----------8----------8-------------------------------|
G|-7--------7-7--------7-7---------7-7-------7----------------------------x2
D|-------------------------------------------------------------------------|
A|-------------------------------------------------------------------------|
E|-------------------------------------------------------------------------|

  And jealous old men ...
Guitar 1
e|----7----------8----------10---------8-----------------------------------|
B|-------8----------8----------8----------8--------------------------------|
G|-7--------7-7--------7-7--------7-7--------7-----------------------------|
D|-------------------------------------------------------------------------|
A|-------------------------------------------------------------------------|
E|----------------------------------------------------------------------- x2

Guitar 2
e|-------------------------------------------------------------------------|
B|----12---------13---------15---------13----------------------------------|
G|-------12---------12---------12---------12-------------------------------|
D|-12-------1212-------1212-------1212-------12----------------------------|
A|-------------------------------------------------------------------------|
E|------------------------------------------------------------------------x2

Fill

Guitar 1
e|-7-7-7-7-7-7-8-8-7-7-7-7-7-7-5-5-7-7-7-7-7-7-7-7-8-8-8-10-----------7---7|
B|-8-8-8-8-8-8-8-8-8-8-8-8-8-8-8-8-8-8-8-8-8-8-8-8-8-8-8-8------------8---8|
G|---------------------------------------------------------------x2---7---7|
D|-------------------------------------------------------------------------|
A|-------------------------------------------------------------------------|
E|-------------------------------------------------------------------------|

Guitar 12
e|-15--------------15--------------15--------------------------------------|
B|---17-15-----------17-15-----------17-15-------------------------------12|
G|--------16br-14---------16br-14---------16br-14-------------------x2---12|
D|---------------17--------------17--------------17----------------------12|
A|-------------------------------------------------------------------------|
E|-------------------------------------------------------------------------|
            
Submit corrections

comments powered by Disqus
↑ Back to top | The Courteeners Tabs for Cavorting. Lyrics for acoustic guitar and electric guitar. Tablatures and chords are parodies/interpretations of the original songs. You may use it for private study, scholarship, research or language learning purposes only