» » »

Cavorting Bass tabs (ver.1)

Artists:  A B C D E F G H I J K L M N O P Q R S T U V W X Y Z # 

Cavorting Bass tabs (ver.1)

The Courteeners
Rating:
5/5 (2 votes)

Hard to play? Try these video lessons and learn fast.
                
tuning: stanadard EADG

intro


G-------------------------| 
D-------------------------|  
A-------------------------|
E--3r--3r--3--3--3--3-3-3-|


verse


G----------------------------------|
D----------------------------------| x 4
A-----------------------2h3-3-5-3-2|
E-3333333333333333333333-----------|


after "..and their struggling to see"

G--------------------------------------------------|
D--------------------------------------------------| x 2
A-------5---5------3-2-0----------5---5-2h3-3-5-3-2|
E-3-333---3---3-33-------33-3-3-3---3--------------|



"and she can't stand still.."

G----------------------------------|
D----------------------------------| x 4
A-----------------------2h3-3-5-3-2|
E-3333333333333333333333-----------|



variation at "i said well f**k that..out of your sight" use


G---------------------------------|
D---------------------------------|
A-------------3-------333-2-333---|
E--3333-3-3-3---------------------|

nothing on the first two bars of the chorus, and then.. 


"you're hooligans on E.."

G---------------------------------|
D---------------------------------|
A-2-2-2-2-3-3-3-3-5-5--5-3--3-3-3-|
E---------------------------------|

G-------------------------------------|
D-------------------------------------|
A-2-2-2-2-3-3-3-3-5-5--5-3--2-0-------|
E-------------------------------3-3---|


G-----------------444-----4h5-5-7-5-4-|
D-555555557775-555---5-555------------|
A-------------------------------------|
E-------------------------------------|


chorus

"cavorting & snorting, your way.."


G-------------------------------|
D-------------------------------|
A------------------2h3-3-5-3-2--|
E--3---3-3---3-3----------------|

bridge

"your club is full of.."

G------------------------------------------|
D------------------------------------------|
A------------------------------2h3-3-5-3-2-|
E--3r------3------3333333333333------------|




         again, the order of the song is pretty self explanitory

   
                           mint song. mint band
            
Hard to play? Try these video lessons and learn fast. | Correct




comments powered by Disqus
↑ Back to top | Tablatures and chords are parodies/interpretations of the original songs. You may use it for private study, scholarship, research or language learning purposes only