» » »

You Overdid It Doll Tabs (ver.1)

Artists:  A B C D E F G H I J K L M N O P Q R S T U V W X Y Z # 

You Overdid It Doll Tabs (ver.1)

The Courteeners
Rating:
0/5 (0 votes)

Hard to play? Try these video lessons and learn fast.
                
Tuning:Standard

Piano Intro

e|-------------------------------------------------------------------------|
B|-9---------9-----------11-----------14~-13-9-----------------------------|
G|---10-8-10---10-8-10------10-8-10----------------------------------------|
D|-------------------------------------------------------------------------|
A|-------------------------------------------------------------------------|
E|-------------------------------------------------------------------------|


Verse - play throughout verses. chords are Fm and Bbm.

e|-x-x-x-8--8------x-x-x-8--8--------x-x-x-9--9------x-x-x-9--9------------|
B|-x-x-x-9--9------x-x-x-9--9--------x-x-x-11-11-----x-x-x-11-11-----------|
G|-x-x-x-10--10----x-x-x-10-10-------x-x-x-10-10-----x-x-x-10-10-----------|
D|-x-x-x-----------x-x-x-------------x-x-x-----------x-x-x-----------------|
A|-x-x-x-----------x-x-x-------------x-x-x-----------x-x-x-----------------|
E|-x-x-x-----------x-x-x-------------x-x-x-----------x-x-x-----------------|

Chorus - Listen Out For Pattern, its like the verse but faster. play x2 then the last 3 
are repeated over the "you'll carry on until your dead and you drop". chords are Bbm, C, 
D#, C#.

e|--1--3--8---6--4--4--3--1------------------------------------------------|
B|--2--5--9---8--6--6--5--2------------------------------------------------|
G|--3--5--10--8--6--6--5--3------------------------------------------------|
D|--3--5--10--8--6--6--5--3------------------------------------------------|
A|--1--3--8---6--4--4--3--1------------------------------------------------|
E|--1--x--8---x--x--x--x--1------------------------------------------------|

Solo

e|-------------------------------------------------------------------------|
B|--9-9h11p9------9-9h11p9-------------------------------------------------|
G|-----------10-8---------10------8----------------------------------------|
D|---------------------------8~-8---10-8------10---------------------------|
A|---------------------------------------8~-8---10-8-----------------------|
E|-------------------------------------------------------------------------|

Pretty sure thats it, if you have any questions feel free to drop me an email. x
            
Hard to play? Try these video lessons and learn fast. | Correct




comments powered by Disqus
↑ Back to top | Tablatures and chords are parodies/interpretations of the original songs. You may use it for private study, scholarship, research or language learning purposes only